AC-DC - Ballbreaker

AC-DC



Title: Ballbreaker
Album: Ballbreaker
Artist: AC/DC
Author: Malcolm & Angus Young

Track 1: guitar 1 (Angus young)
E|---------|---------|---------|---------|---------|---------------------------------|
B|---------|---------|---------|---------|---------|-3----2----2-----2----0----0-----|
G|-%-------|-%-------|-%-------|-%-------|-%-------|-4----2----2-----2----0----0-----|
D|-%-------|-%-------|-%-------|-%-------|-%-------|---------------------------------|
A|---------|---------|---------|---------|---------|---------------------------------|
E|---------|---------|---------|---------|---------|---------------------------------|

E|----------------------------|------2--------------------------|----------------------------|
B|-2----0----0----------------|-3----2----2-----2----0----0-----|-2----0----0----------------|
G|-2----0----0----------------|-4----2----2-----2----0----0-----|-2----0----0----1------1----|
D|----------------2------2----|---------------------------------|----------------2------2----|
A|----------------2------2----|------0----0-----0----0----0-----|-0--------------2------2----|
E|----------------0------0----|---------------------------------|------3----3----0------0----|

E|---------------|---------3----------------------|-3----3----3----3----2----------2----|
B|---------------|---------3----------------------|-3----3----3----3----3----------3----|
G|-1------%------|---------0-----------%----%-----|-0----0----0----0----2----%-----2----|
D|-2------%------|-2---2---0------2----%----%-----|-0----0----0----0----0----%-----0----|
A|-2-------------|-2---2----------2---------------|---------------------0---------------|
E|-0-------------|-0---0---3------0---------------|-3----3----3----3--------------------|

E|-------------------------------------|-3----3----3----3----2------2----|-2----3----2---------3----2----2-----|
B|-------------------------------------|-3----3----3----3----3------3----|-3----3----3---------3----3----3-----|
G|-%----2----2----%--------------------|-0----0----0----0----2------2----|-2----2----2----%----2----2----2-----|
D|-%----2----2----%----2----2----2-----|-0----0----0----0----0------0----|-0----0----0----%----0----0----0-----|
A|------0----0---------2----2----2-----|---------------------------------|-------------------------------------|
E|---------------------0----0----0-----|-3----3----3----3----------------|-------------------------------------|

E|---------3----------------------|---------3------------------|---------3----------------------|
B|---------3----------------------|---------3------------------|---------3----------------------|
G|---------0-----------%----%-----|---------0------------------|---------0-----------%----%-----|
D|-2---2---0------2----%----%-----|-2---2---0------2-----2-----|-2---2---0------2----%----%-----|
A|-2---2----------2---------------|-2---2----------2-----2-----|-2---2----------2---------------|
E|-0---0---3------0---------------|-0---0---3------0-----0-----|-0---0---3------0---------------|

E|-3----3----3----3----2----------2----|-------------------------------------|-3----3----3----3----2------2----|
B|-3----3----3----3----3----------3----|-------------------------------------|-3----3----3----3----3------3----|
G|-0----0----0----0----2----%-----2----|-%----2----2----%--------------------|-0----0----0----0----2------2----|
D|-0----0----0----0----0----%-----0----|-%----2----2----%----2----2----2-----|-0----0----0----0----0------0----|
A|---------------------0---------------|------0----0---------2----2----2-----|---------------------------------|
E|-3----3----3----3--------------------|---------------------0----0----0-----|-3----3----3----3----------------|

E|-2----3----2---------3----2----2-----|---------3----------------------|---------3------------------|
B|-3----3----3---------3----3----3-----|---------3----------------------|---------3------------------|
G|-2----2----2----%----2----2----2-----|---------0-----------%----%-----|---------0------------------|
D|-0----0----0----%----0----0----0-----|-2---2---0------2----%----%-----|-2---2---0------2-----2-----|
A|-------------------------------------|-2---2----------2---------------|-2---2----------2-----2-----|
E|-------------------------------------|-0---0---3------0---------------|-0---0---3------0-----0-----|

E|---------|-------8---------------------|---------------------------------|---------------------5------------------|
B|---------|-10---------------7----------|---------------------------------|-----------------5-----------7----5-----|
G|---------|------------------7-----5----|-------X----8----8----8----8-----|-8-----8----7------------8---7----5-----|
D|-2-------|------------X----------------|-7-----X-------------------------|----------------------------------------|
A|-2-------|------------X----------------|---------------------------------|----------------------------------------|
E|-0-------|-----------------------------|---------------------------------|----------------------------------------|

E|-5-----5---0---5--------------------8----8---5---|-----------------------------------------------|
B|-------------------8----8---8---5----------------|-8---5--------------------5--------------------|
G|-------------------------------------------------|---------7----7---5---7---5---------------5----|
D|-------------------------------------------------|--------------------------------7---------5----|
A|-------------------------------------------------|-------------------------------------7---------|
E|-------------------------------------------------|-----------------------------------------------|

E|------------------------------------|------------------------------------|----------------------8----------|
B|------------------------------------|------------------------------------|-----------------10---10----10---|
G|------------------------------------|-7-----5----------5--5--2--0--4-----|-2-------------------------------|
D|-7----5----7-----7----------X---X---|------------7-----5-----------------|------4-----2--------------------|
A|------------------------X-----------|------------------------------------|---------------------------------|
E|------------------------------------|------------------------------------|---------------------------------|

E|-8----8-----8-----8-----------------------------|-----------------------------------------------------------------|
B|-8----8-----8-----8-----10--13--10--13--10--13--|-10--13--13--10--13--10--13--10--13--10--13--10--13--10--13--10--|
G|------------------------------------------------|-----------------------------------------------------------------|
D|------------------------------------------------|-----------------------------------------------------------------|
A|------------------------------------------------|-----------------------------------------------------------------|
E|------------------------------------------------|-----------------------------------------------------------------|

E|--------------10---10-------------10---X----13----|-13---10---------------------------------------|
B|-13--10-----------------13---13--------X----------|-----------13---10--12--------------------10---|
G|---------7----------------------------------------|--------------------12--12--10-------10---10---|
D|--------------------------------------------------|--------------------------------12---10--------|
A|--------------------------------------------------|-----------------------------------------------|
E|--------------------------------------------------|-----------------------------------------------|

E|--------------------------------------------|----------------------------------------------|
B|---------------------12---13---12---X---X---|-12---10--------------------------------------|
G|----------------10---12---13---12---X---X---|-12---10---12---12---X--12---X--12---X---12---|
D|-12---12---12-------------------------------|-----------12---------------------------------|
A|--------------------------------------------|----------------------------------------------|
E|--------------------------------------------|----------------------------------------------|

E|--------------------------------------------------|-------------------------------------------------------|
B|-13---13---13---13---13---13--13--13--13--13--13--|-13--13--13--13--13--13--13--13--13--13--13--13--X-----|
G|-12---12---12---12---12---12--12--12--12--12--12--|-12--12--12--12--12--12--12--12--12--12--12--12--X-----|
D|--------------------------------------------------|-------------------------------------------------------|
A|--------------------------------------------------|-------------------------------------------------------|
E|--------------------------------------------------|-------------------------------------------------------|

E|----------------------------|----------------------------------|----------------------------|
B|-3----2-----2----2----0-----|-0---------------------------3----|-2-----2----2----0-----0----|
G|-4----2-----2----2----0-----|-0----2----0-----------------4----|-2-----2----2----0-----0----|
D|----------------------------|----------------------------------|----------------------------|
A|----------------------------|----------------------------------|----------------------------|
E|----------------------------|-----------------0-----0----------|----------------------------|

E|---------------------------|---------------------------------------------0---4---0-------4---0-------4---0---0---X---0---0---0---0---10----10------------|
B|-2----0--------------------|---------------------------------------------------------0-----------0-------------------------------------------------X-----|
G|-2----0----0---------------|-2-----%---2-----2-----2-----2-----0----2------------------------------------------------------------------------------X-----|
D|---------------------------|-------%---------------------------0--------------------------------------------------------------------------------------X--|
A|---------------------------|--------------------------------------------------------------------------------------------------------------------------X--|
E|----------------0-----0----|-----------------------------------------------------------------------------------------------------------------------------|

E|---------|---------3----------------------|---------3------------------|-3----3----3----3----2------2----|
B|---------|---------3----------------------|---------3------------------|-3----3----3----3----3------3----|
G|-%-------|---------0-----------%----%-----|---------0------------------|-0----0----0----0----2------2----|
D|-%-------|-2---2---0------2----%----%-----|-2---2---0------2-----2-----|-0----0----0----0----0------0----|
A|---------|-2---2----------2---------------|-2---2----------2-----2-----|---------------------------------|
E|---------|-0---0---3------0---------------|-0---0---3------0-----0-----|-3----3----3----3----------------|

E|-2-----------------------------------|-3----3----3----3----2------2----|-2----3----2----2----3----2----2-----|
B|-3-----------------------------------|-3----3----3----3----3------3----|-3----3----3----3----3----3----3-----|
G|-2----2----2----2--------------------|-0----0----0----0----2------2----|-2----2----2----2----2----2----2-----|
D|-0----2----2----2----2----2----2-----|-0----0----0----0----0------0----|-0----0----0----0----0----0----0-----|
A|------0----0----0----2----2----2-----|---------------------------------|-------------------------------------|
E|---------------------0----0----0-----|-3----3----3----3----------------|-------------------------------------|

E|---------3------------------|-----------------------------------------------------------------|
B|---------3------------------|------------------------------8----------------------------------|
G|---------0------------------|-X----------------------------7----------------------------------|
D|-2---2---0------2-----2-----|-----------------------------------------------------------------|
A|-2---2----------2-----2-----|------X--X--X--X--X--X--X--X--------X--X--X--X--X--X--X--X--7----|
E|-0---0---3------0-----0-----|------X--X--X--X--X--X--X--X--------X--X--X--X--X--X--X--X-------|

E|---------------------------------------------------------------------|-----------------------------------------------|
B|---------------------------------------------------------------------|-8----8----8----5----0----5----0----5----5-----|
G|-7---------------------------------8----8----------------------------|-7----7----------------------------------------|
D|-----------------------------------7----7----------------------------|-----------------------------------------------|
A|------X--X--X--X--X--X--X--X--7--------------X--X--X--X--X--X--X--X--|-----------------------------------------------|
E|------X--X--X--X--X--X--X--X-----------------X--X--X--X--X--X--X--X--|-----------------------------------------------|

E|---------------|---------------|---------------|---------------|---------|---------|
B|-5-------10----|-10------12----|-12------18----|-18------16----|-16------|-17------|
G|---------------|---------------|---------------|---------------|---------|---------|
D|---------------|---------------|---------------|---------------|---------|---------|
A|---------------|---------------|---------------|---------------|---------|---------|
E|---------------|---------------|---------------|---------------|---------|---------|

E|------------------------------|---------------------------|------------------------------------------------------------------------------------------------------------|
B|-X----15----15---14-----14----|--------14-----------------|-15---14----14---14---12----12---14---------------------15---14----14---14---12----12---14---12---12--------|
G|-X----16----16---14-----14----|-12-----14---12------------|-16---14----14---14---12----12---14---12----------------16---14----14---14---12----12---14---12---12--------|
D|------------------------------|--------------------14-----|--------------------------------------------14----14---------------------------------------------------14---|
A|------------------------------|---------------------------|------------------------------------------------------------------------------------------------------------|
E|------------------------------|---------------------------|------------------------------------------------------------------------------------------------------------|

E|--------|---------------------------------|------------------------|---------3------------------------------------|
B|--------|-15---14----14---14---12----12---|-14---12---12-----------|---------3------------------------------------|
G|--------|-16---14----14---14---12----12---|-14---12---12-----------|---------0------------------------------------|
D|-14-----|---------------------------------|----------------14------|-2---2---0------2------2-----2-----2-----2----|
A|--------|---------------------------------|------------------------|-2---2----------2------2-----2-----2-----2----|
E|--------|---------------------------------|------------------------|-0---0---3------0------0-----0-----0-----0----|

E|---------|
B|---------|
G|---------|
D|-2-------|
A|-2-------|
E|-0-------|
AC-DC - Ballbreaker
AC-DC - Ballbreaker.gp4