AC-DC - Beating Around The Bush

AC-DC



Title: Beating around the bush
Album: Highway to hell
Artist: AC/DC
Author: Angus Young - Malcolm Young - Bon Scott

Track 1: Guitar (Distortion)
E|---------------------------------|---------|---------|---------------------------------|
B|---------------------------------|---------|---------|---------------------------------|
G|---------------------------------|---------|---------|---------------------------------|
D|--------------------------0------|-0-------|-0-------|--------------------------0------|
A|-----------0----1----2-----------|---------|---------|-----------0----1----2-----------|
E|-0----3--------------------------|---------|---------|-0----3--------------------------|

E|---------|-------------------|-----------------------------------------|-------------------------------------|
B|---------|-------------------|-----------------------------------------|-------------------------------------|
G|---------|-------------------|-----------------------------------------|-------------------------------------|
D|-0-------|-0-------0---------|---------------------0-------------------|--------------------------2----------|
A|---------|-------------------|------0----1----2---------2----1----0----|--------------------------2----------|
E|---------|--------------0----|-3---------------------------------------|-3----0----3----0----0----0-----0----|

E|-----------------------------------------|------------------------|-----------------------------------------|
B|-----------------------------------------|------------------------|-----------------------------------------|
G|-----------------------------------------|------------------------|-----------------------------------------|
D|---------------------0-------------------|------------------------|---------------------0-------------------|
A|------0----1----2---------2----1----0----|------2------2----------|------0----1----2---------2----1----0----|
E|-3---------------------------------------|-3----0------0-----0----|-3---------------------------------------|

E|-------------------------------------|-----------------------------------------|--------------------|
B|-------------------------------------|-----------------------------------------|--------------------|
G|-------------------------------------|-----------------------------------------|--------------------|
D|--------------------------2----------|---------------------0-------------------|--------------------|
A|--------------------------2----------|------0----1----2---------2----1----0----|------2------2------|
E|-3----0----3----0----0----0-----0----|-3---------------------------------------|-3----0------0------|

E|-------------------|---------|-----------------------------|---------------------------------|
B|-------------------|---------|-3---------------------------|---------------------------------|
G|-----------%-------|-%-------|-2-----2-----2---------------|---------------------------------|
D|-2----2----%-------|-%-------|-0-----2-----2---------------|-----------2----2-----2----2-----|
A|-2----2------------|---------|-------0-----0---------------|-----------2----2-----2----2-----|
E|-0----0------------|---------|-------------------3----0----|-3----0----0----0-----0----0-----|

E|---------|---------|-----------------------------|---------------------------------|
B|---------|---------|-3---------------------------|---------------------------------|
G|-%-------|-%-------|-2-----2-----2---------------|---------------------------------|
D|-%-------|-%-------|-0-----2-----2---------------|-----------2----2-----2----2-----|
A|---------|---------|-------0-----0---------------|-----------2----2-----2----2-----|
E|---------|---------|-------------------3----0----|-3----0----0----0-----0----0-----|

E|---------------------|---------|---------------------|---------|---------------------|
B|---------------------|---------|-3------3------3-----|---------|---------------------|
G|---------------------|-%-------|-2------2------2-----|-%-------|-2------2------2-----|
D|-2------2------2-----|-%-------|-0------0------0-----|-%-------|-2------2------2-----|
A|-2------2------2-----|---------|-0------0------0-----|---------|-0------0------0-----|
E|-0------0------0-----|---------|---------------------|---------|---------------------|

E|------------------------|-----------------------------------------|-------------------------------------|
B|------------------------|-----------------------------------------|-------------------------------------|
G|-%-----------%----------|-----------------------------------------|--------------------------------%----|
D|-%------2----%----------|---------------------0-------------------|--------------------------2-----%----|
A|--------2---------------|------0----1----2---------2----1----0----|--------------------------2----------|
E|--------0----------0----|-3---------------------------------------|-3----0----3----0----0----0----------|

E|---------|---------|-----------------------------|---------------------------------|
B|---------|---------|-3---------------------------|---------------------------------|
G|-%-------|-%-------|-2-----2-----2---------------|---------------------------------|
D|-%-------|-%-------|-0-----2-----2---------------|-----------2----2-----2----2-----|
A|---------|---------|-------0-----0---------------|-----------2----2-----2----2-----|
E|---------|---------|-------------------3----0----|-3----0----0----0-----0----0-----|

E|---------|---------|
B|---------|---------|
G|-%-------|-%-------|
D|-%-------|-%-------|
A|---------|---------|
E|---------|---------|
AC-DC - Beating Around The Bush
AC-DC - Beating Around The Bush.gp4