AC-DC - C.O.D.

AC-DC



Title: C.O.D
Album: For those about to rock (we salute you)
Artist: AC/DC
Author: Angus Young , Malcolm Young & Brian Johnson

Track 1: Overdriven guitar
E|-3-------|-3----------------------|---------|--------3------|-3------3------|-3----------------------|
B|-3-------|-3------6---------------|---------|--------3------|-3------3------|-3------6---------------|
G|-0-------|-0------5----%----5-----|-5-------|-5------0------|-0------0------|-0------5----%----5-----|
D|-0-------|-0------7----%----5-----|-5-------|-5------0------|-0------0------|-0------7----%----5-----|
A|---------|------------------------|---------|---------------|---------------|------------------------|
E|-3-------|-3----------------------|---------|--------3------|-3------3------|-3----------------------|

E|---------|--------3------|-3------3------|-3----------------------|---------|--------3------|
B|---------|--------3------|-3------3------|-3------6---------------|---------|--------3------|
G|-5-------|-5------0------|-0------0------|-0------5----%----5-----|-5-------|-5------0------|
D|-5-------|-5------0------|-0------0------|-0------7----%----5-----|-5-------|-5------0------|
A|---------|---------------|---------------|------------------------|---------|---------------|
E|---------|--------3------|-3------3------|-3----------------------|---------|--------3------|

E|-3------3------|-3----------------------|---------|-------------------|-----------------------------------------|
B|-3------3------|-3------6---------------|---------|-------------------|------------------------------------6----|
G|-0------0------|-0------5----%----5-----|-5-------|-5-------5----0----|-3----5----0----3----3----0----0----5----|
D|-0------0------|-0------7----%----5-----|-5-------|-5-------5----0----|-3----5----0----3----3----0----0----7----|
A|---------------|------------------------|---------|-------------------|-----------------------------------------|
E|-3------3------|-3----------------------|---------|-------------------|-----------------------------------------|

E|-----------------------------|-----------------------------------------|-----------------------------|
B|-6-----6-----6----5----------|------------------------------------6----|-6-----6-----6----5-----3----|
G|-5-----5-----5----5-----0----|-3----5----0----3----3----0----0----5----|-5-----5-----5----5-----3----|
D|-7-----7-----7----5-----0----|-3----5----0----3----3----0----0----7----|-7-----7-----7----5-----3----|
A|-----------------------------|-----------------------------------------|------------------------1----|
E|-----------------------------|-----------------------------------------|-----------------------------|

E|-----------------------------|---------|--------3------|-3------3------|-3----------------------|
B|-3-----3-----3----1----5-----|-5-------|-5------3------|-3------3------|-3------6---------------|
G|-3-----3-----3----2----5-----|-5-------|-5------0------|-0------0------|-0------5----%----5-----|
D|-3-----3-----3----3----5-----|-5-------|-5------0------|-0------0------|-0------7----%----5-----|
A|-1-----1-----1----0----3-----|-3-------|-3-------------|---------------|------------------------|
E|-----------------------------|---------|--------3------|-3------3------|-3----------------------|

E|---------|--------3------|-3------3------|-3----------------------|---------|--------3------|
B|---------|--------3------|-3------3------|-3------6---------------|---------|--------3------|
G|-5-------|-5------0------|-0------0------|-0------5----%----5-----|-5-------|-5------0------|
D|-5-------|-5------0------|-0------0------|-0------7----%----5-----|-5-------|-5------0------|
A|---------|---------------|---------------|------------------------|---------|---------------|
E|---------|--------3------|-3------3------|-3----------------------|---------|--------3------|

E|-3------3------|-3------3-----------|-----------------------------------------|-----------------------------|
B|-3------3------|-3------3-----------|------------------------------------6----|-6-----6-----6----5----------|
G|-0------0------|-0------0------0----|-3----5----0----3----3----0----0----5----|-5-----5-----5----5-----0----|
D|-0------0------|-0------0------0----|-3----5----0----3----3----0----0----7----|-7-----7-----7----5-----0----|
A|---------------|--------------------|-----------------------------------------|-----------------------------|
E|-3------3------|-3------3-----------|-----------------------------------------|-----------------------------|

E|-----------------------------------------|-----------------------------|-----------------------------|
B|------------------------------------6----|-6-----6-----6----5-----3----|-3-----3-----3----1----5-----|
G|-3----5----0----3----3----0----0----5----|-5-----5-----5----5-----3----|-3-----3-----3----2----5-----|
D|-3----5----0----3----3----0----0----7----|-7-----7-----7----5-----3----|-3-----3-----3----3----5-----|
A|-----------------------------------------|------------------------1----|-1-----1-----1----0----3-----|
E|-----------------------------------------|-----------------------------|-----------------------------|

E|---------|--------3------|-3------3------|-3----------------------|------------------------|
B|-5-------|-5------3------|-3------3------|-3------6---------------|--------6---------------|
G|-5-------|-5------0------|-0------0------|-0------5----%----5-----|-5------5----%----5-----|
D|-5-------|-5------0------|-0------0------|-0------7----%----5-----|-5------7----%----5-----|
A|-3-------|-3-------------|---------------|------------------------|------------------------|
E|---------|--------3------|-3------3------|-3----------------------|------------------------|

E|-------|--------3------|-3------3------|-3----------------------|------------------------|
B|-------|--------3------|-3------3------|-3------6---------------|--------6---------------|
G|-5-----|-5------0------|-0------0------|-0------5----%----5-----|-5------5----%----5-----|
D|-5-----|-5------0------|-0------0------|-0------7----%----5-----|-5------7----%----5-----|
A|-------|---------------|---------------|------------------------|------------------------|
E|-------|--------3------|-3------3------|-3----------------------|------------------------|

E|-------|--------3------|-3------3------|-3----------------------|------------------------|
B|-------|--------3------|-3------3------|-3------6---------------|--------6---------------|
G|-5-----|-5------0------|-0------0------|-0------5----%----5-----|-5------5----%----5-----|
D|-5-----|-5------0------|-0------0------|-0------7----%----5-----|-5------7----%----5-----|
A|-------|---------------|---------------|------------------------|------------------------|
E|-------|--------3------|-3------3------|-3----------------------|------------------------|

E|-------|--------3------|-3------3------|-3----------------------|------------------------|
B|-------|--------3------|-3------3------|-3------6---------------|--------6---------------|
G|-5-----|-5------0------|-0------0------|-0------5----%----5-----|-5------5----%----5-----|
D|-5-----|-5------0------|-0------0------|-0------7----%----5-----|-5------7----%----5-----|
A|-------|---------------|---------------|------------------------|------------------------|
E|-------|--------3------|-3------3------|-3----------------------|------------------------|

E|-------|-------------------|-----------------------------------------|-----------------------------|
B|-------|-------------------|------------------------------------6----|-6-----6-----6----5----------|
G|-5-----|-5-------5----0----|-3----5----0----3----3----0----0----5----|-5-----5-----5----5-----0----|
D|-5-----|-5-------5----0----|-3----5----0----3----3----0----0----7----|-7-----7-----7----5-----0----|
A|-------|-------------------|-----------------------------------------|-----------------------------|
E|-------|-------------------|-----------------------------------------|-----------------------------|

E|-----------------------------------------|-----------------------------|---------------|
B|------------------------------------6----|-6-----6-----6----5-----5----|-5-------------|
G|-3----5----0----3----3----0----0----5----|-5-----5-----5----5-----5----|-5------%------|
D|-3----5----0----3----3----0----0----7----|-7-----7-----7----5-----5----|-5------%------|
A|-----------------------------------------|-----------------------------|---------------|
E|-----------------------------------------|-----------------------------|---------------|

E|-3-----3----3-----3----------|-----------------------------|-3-----3----3-----3----3-----|
B|-3-----3----3-----3----------|-6----6-----6-----6----5-----|-3-----3----3-----3----3-----|
G|-0-----0----0-----0----%-----|-5----5-----5-----5----5-----|-0-----0----0-----0----0-----|
D|-0-----0----0-----0----%-----|-7----7-----7-----7----5-----|-0-----0----0-----0----0-----|
A|-----------------------------|-----------------------------|-----------------------------|
E|-3-----3----3-----3----------|-----------------------------|-3-----3----3-----3----3-----|

E|-----------------------------|-3-------|-3-------|
B|-6----6-----6-----6----5-----|-3-------|-3-------|
G|-5----5-----5-----5----5-----|-0-------|-0-------|
D|-7----7-----7-----7----5-----|-0-------|-0-------|
A|-----------------------------|---------|---------|
E|-----------------------------|-3-------|-3-------|
AC-DC - C.O.D.
AC-DC - C.O.D..gp4