AC-DC - Can't Stop Rock 'n' Roll

AC-DC - Can't Stop Rock 'n' Roll

AC-DC



Title: Can't stop rock 'n' roll
Album: Stiff upper lip
Artist: AC/DC
Author: Malcolm Young / Angus Young

Track 1: guitar+distortion
E|-------------------------|------------------------|-----------------------------------------------|
B|-------3-----3-----1-----|------------------------|-----------------------------------------------|
G|-2-----0-----2-----0-----|-2-----5------5-----5---|-----------------------------------------------|
D|-2-----0-----0-----2-----|-2-----5------5-----5---|-7----7----7----7---7---7---7---7----7----7----|
A|-0-----------------3-----|-0-----3------3-----3---|-0----0----0----0---0---0---0---0----0----0----|
E|-------3-----------------|------------------------|-----------------------------------------------|

E|-----------------------------------------------|--------------------------------------------------------|
B|-----------------------------------------------|--------------------------------------------------------|
G|-----------------------------------------------|--------------------------------------------------------|
D|-7----7----7----7---7---7---7---7----7----7----|-7----7----7----7---7---7---5---5---5---5---5---5---5---|
A|-0----0----0----0---0---0---0---0----0----0----|-0---------0--------0---0-------0-------0---0---0---0---|
E|-----------------------------------------------|--------------------------------------------------------|

E|--------------------------------------------------------|-----------------------------------------------------|
B|--------------------------------------------------------|-----------------------------------------------------|
G|-9---8---7---%---7----7---7----7---7----7---7---7---7---|-----------------------------------------------------|
D|-------------%------------------------------------------|-----------------------------------------------------|
A|--------------------------------------------------------|-7----7----7----7---7---7---5---5---5---5---5---5----|
E|--------------------------------------------------------|-5----5----5----5---5---5---3---3---3---3---3---3----|

E|--------------------------------------------------------|------------------------------------------|
B|--------------------------------------------------------|------------------------------------------|
G|-------------%------------------------------------------|-%----2---%------------7---%----5-----5---|
D|-9---8---7---%---7----7---7----7---7----7---7---7---7---|-%----2---%---5-----5--7---%----5-----5---|
A|-7---6---5-------5----5---5----5---5----5---5---5---5---|------0-------5-----5--5--------3-----3---|
E|--------------------------------------------------------|--------------3-----3---------------------|

E|---------------------------|------------------------|-------------------------|---------------------------------|
B|---------------------------|------------------------|-------------------------|---------------------------------|
G|-2---2---5----%-----%------|------------------------|-2----2-----2------2-----|---------------------------------|
D|-2---2---5----%-----%------|-3----3-----3------3----|-2----2-----2------2-----|-3----3-----3----5----5-----5----|
A|-0---0---3-----------------|-3----3-----3------3----|-0----0-----0------0-----|-3----3-----3----5----5-----5----|
E|---------------------------|-1----1-----1------1----|-------------------------|-1----1-----1----3----3-----3----|

E|----------------------------------------------------|-----------------------------------------------------|
B|----------------------------------------------------|-----------------------------------------------------|
G|-7-----7----7---7---7---7---7---7---7---7---7---7---|-----------------------------------------------------|
D|-7-----7----7---7---7---7---7---7---7---7---7---7---|-----------------------------------------------------|
A|-5-----5----5---5---5---5---5---5---5---5---5---5---|-7----7----7----7---7---7---5---5---5---5---5---5----|
E|----------------------------------------------------|-5----5----5----5---5---5---3---3---3---3---3---3----|

E|--------------------------------------------------------|------------------------------------------|
B|--------------------------------------------------------|------------------------------------------|
G|-------------%------------------------------------------|-%----2---%------------7---%----5-----5---|
D|-9---8---7---%---7----7---7----7---7----7---7---7---7---|-%----2---%---5-----5--7---%----5-----5---|
A|-7---6---5-------5----5---5----5---5----5---5---5---5---|------0-------5-----5--5--------3-----3---|
E|--------------------------------------------------------|--------------3-----3---------------------|

E|---------------------------|------------------------|-------------------------|---------------------------------|
B|---------------------------|------------------------|-------------------------|---------------------------------|
G|-2---2---5----%-----%------|------------------------|-2----2-----2------2-----|---------------------------------|
D|-2---2---5----%-----%------|-3----3-----3------3----|-2----2-----2------2-----|-3----3-----3----5----5-----5----|
A|-0---0---3-----------------|-3----3-----3------3----|-0----0-----0------0-----|-3----3-----3----5----5-----5----|
E|---------------------------|-1----1-----1------1----|-------------------------|-1----1-----1----3----3-----3----|

E|----------------------------------------------------|-----------------------------------------------------|
B|----------------------------------------------------|-----------------------------------------------------|
G|-7-----7----7---7---7---7---7---7---7---7---7---7---|-----------------------------------------------------|
D|-7-----7----7---7---7---7---7---7---7---7---7---7---|-----------------------------------------------------|
A|-5-----5----5---5---5---5---5---5---5---5---5---5---|-7----7----7----7---7---7---5---5---5---5---5---5----|
E|----------------------------------------------------|-5----5----5----5---5---5---3---3---3---3---3---3----|

E|--------------------------------------------------------|-----------------------------------------------------|
B|--------------------------------------------------------|-----------------------------------------------------|
G|-------------%------------------------------------------|-----------------------------------------------------|
D|-9---8---7---%---7----7---7----7---7----7---7---7---7---|-2----2----2----2---2---2---5---5----5---5---5---5---|
A|-7---6---5-------5----5---5----5---5----5---5---5---5---|-0----0----0----0---0---0---3---3----3---3---3---3---|
E|--------------------------------------------------------|-----------------------------------------------------|

E|-----------------------------------------------------------|
B|-----------------------------------------------------------|
G|-----7---7---7---7----7---7---7---7---7---7---7----7---7---|
D|-5---7---7---7---7----7---7---7---7---7---7---7----7---7---|
A|-3---5---5---5---5----5---5---5---5---5---5---5----5---5---|
E|-----------------------------------------------------------|
AC-DC - Can't Stop Rock 'n' Roll
AC-DC - Can't Stop Rock 'n' Roll.gp4