AC-DC - Come And Get It (2)

AC-DC



Title: Come And Get It
Album: Stiff Upper Lip
Artist: ACDC
Author: 

Track 1: Guitare
E|-------------------------------------------|----------------------------|---------|
B|-------------------------------------------|----------------------------|---------|
G|-5----2---------2-----0--------------------|-5----2---------2------2----|-2-------|
D|-5----2--------------------0---1---2-------|-5----2---------2------2----|-2-------|
A|-3----0----0---------------------------0---|-3----0----0----0------0----|-0-------|
E|-------------------------------------------|----------------------------|---------|

E|-------------------------------------------|----------------------|---------------------------------|
B|-------------------------------------------|----------------------|---------------------------------|
G|----------------2-----0--------------------|-----%---%-------%----|-5----5---------5-----------5----|
D|-5----2--------------------0---1---2-------|-----%---%-------%----|-7----7----5----7-----5-----7----|
A|-3----0----0---------------------------3---|-0--------------------|-5----5----5----5-----5-----5----|
E|-------------------------------------------|----------------------|-----------3----------3----------|

E|---------------|---------------------------------|---------------|---------------------------------|
B|---------------|---------------------------------|---------------|-3----3----2----3-----2----------|
G|-5-----5-------|-7----7---------7-----------7----|-7-----7-------|-2----2----2----2-----2----------|
D|-7-----7-------|-9----9----7----9-----7-----9----|-9-----9-------|-0----0----2----0-----2-----2----|
A|-5-----5-------|-7----7----7----7-----7-----7----|-7-----7-------|-0----0----0----0-----0-----2----|
E|---------------|-----------5----------5----------|---------------|----------------------------0----|

E|---------------|-------------------------------------------|----------------------|
B|---------------|-------------------------------------------|----------------------|
G|---------------|----------------2-----0--------------------|-----%---%-------%----|
D|-2-----2-------|-5----2--------------------0---1---2-------|-----%---%-------%----|
A|-2-----2-------|-3----0----0---------------------------3---|-0--------------------|
E|-0-----0-------|-------------------------------------------|----------------------|

E|-------------------------------------------|----------------------------|---------|
B|-------------------------------------------|----------------------------|---------|
G|----------------2-----0--------------------|-5----2---------2------2----|-2-------|
D|-5----2--------------------0---1---2-------|-5----2---------2------2----|-2-------|
A|-3----0----0---------------------------0---|-3----0----0----0------0----|-0-------|
E|-------------------------------------------|----------------------------|---------|

E|-------------------------------------------|----------------------|---------------------------------|
B|-------------------------------------------|----------------------|---------------------------------|
G|----------------2-----0--------------------|-----%---%-------%----|-5----5---------5-----------5----|
D|-5----2--------------------0---1---2-------|-----%---%-------%----|-7----7----5----7-----5-----7----|
A|-3----0----0---------------------------3---|-0--------------------|-5----5----5----5-----5-----5----|
E|-------------------------------------------|----------------------|-----------3----------3----------|

E|---------------|---------------------------------|---------------|---------------------------------|
B|---------------|---------------------------------|---------------|-3----3----2----3-----2----------|
G|-5-----5-------|-7----7---------7-----------7----|-7-----7-------|-2----2----2----2-----2----------|
D|-7-----7-------|-9----9----7----9-----7-----9----|-9-----9-------|-0----0----2----0-----2-----2----|
A|-5-----5-------|-7----7----7----7-----7-----7----|-7-----7-------|-0----0----0----0-----0-----2----|
E|---------------|-----------5----------5----------|---------------|----------------------------0----|

E|---------------|-------------------------------------------|----------------------|
B|---------------|-------------------------------------------|----------------------|
G|---------------|----------------2-----0--------------------|-----%---%-------%----|
D|-2-----2-------|-5----2--------------------0---1---2-------|-----%---%-------%----|
A|-2-----2-------|-3----0----0---------------------------3---|-0--------------------|
E|-0-----0-------|-------------------------------------------|----------------------|

E|---------------------------------|----------------------------|----------------------------|
B|---------------------------------|----------------------------|----------------------------|
G|-----------%---------------%-----|-5----2---------2------2----|----------------2------2----|
D|-5----2----%-----5----2----%-----|-5----2---------2------2----|----------------2------2----|
A|-3----0----------3----0----------|-3----0----0----0------0----|-3----0----0----------------|
E|---------------------------------|----------------------------|----------------------------|

E|----------------------------|-------------------------------------|----------------------------|
B|----------------------------|-------------------------------------|----------------------------|
G|----------------2------2----|----------------2--------------------|----------------2------2----|
D|----------------2------2----|----------------2--------------------|----------------2------2----|
A|-3----0----0----0------0----|-3----0----0----0-----0----0----0----|-3----0----0----0------0----|
E|----------------------------|-------------------------------------|----------------------------|

E|----------------------------|---------------------------------|-----------------------------|
B|----------------------------|---------------------------------|----------------------3------|
G|----------------------------|------2----2----------2----2-----|------2----2----2-----2------|
D|-5----2----2----2------2----|-5----2----2-----5----2----2-----|-5----2----2----2-----0------|
A|-5----2----2----2------2----|-3----0----0-----3----0----0-----|-3----0----0----0------------|
E|-3----0----0----0------0----|---------------------------------|----------------------2------|

E|---------------------------------|-------------------------------------|---------------------------------|
B|---------------------------------|-------------------------------------|---------------------------------|
G|-5----5---------5-----------5----|-5-----5----5----5----5----5----5----|-7----7---------7----------------|
D|-7----7----5----7-----5-----7----|-7-----7----7----7----7----7----7----|-9----9----7----9-----7-----2----|
A|-5----5----5----5-----5-----5----|-5-----5----5----5----5----5----5----|-7----7----7----7-----7-----2----|
E|-----------3----------3----------|-------------------------------------|-----------5----------5-----0----|

E|-------------------|----------------------------|-------------------|----------------------------|
B|-------------------|----------------------------|-------------------|----------------------------|
G|-------------------|-----------%----------------|-----------%-------|-----------%----------------|
D|-2----2-------2----|-5----2----%----------------|-5----2----%-------|-5----2----%----------------|
A|-2----2-------2----|-3----0-----------5----7----|-3----0------------|-3----0-----------5----7----|
E|-0----0-------0----|------------------3----5----|-------------------|------------------3----5----|

E|-------------------|-------------------------------------------|-------------------------------|
B|-------------------|-------------------------------------------|------------------3---3----3---|
G|-------------------|----------------2-----0--------------------|-----%------%-----2---2----2---|
D|-5----2----2-------|-5----2--------------------0---1---2-------|-2---%------%-----0---0----0---|
A|-3----0----0-------|-3----0----0---------------------------3---|-0-----------------------------|
E|-------------------|-------------------------------------------|-------------------------------|

E|-------------------------------------------|------------------------|---------|---------|
B|-------------------------------------------|------------------------|---------|---------|
G|----------------2-----0--------------------|-----------%------2-----|-2-------|-%-------|
D|-5----2--------------------0---1---2-------|-5----2----%------2-----|-2-------|-%-------|
A|-3----0----0---------------------------3---|-3----0-----------0-----|-0-------|---------|
E|-------------------------------------------|------------------------|---------|---------|
AC-DC - Come And Get It (2)
AC-DC - Come And Get It (2).gp4