AC-DC - Cover You In Oil

AC-DC - Cover You In Oil

AC-DC



Title: Cover You In Oil
Album: Ballbreaker
Artist: AC/DC
Author: Evander

Track 1: Lead Guitar
E|-------3----2----3----2-----2----|-2-------|-----------------------------------------------|
B|-------3----3----3----3-----3----|-3-------|-----------------------------------------------|
G|-2-----0----2----0----2-----2----|-2-------|-2---2---2---%----------------------------2----|
D|-2-----0----0----0----0-----0----|-0-------|-2---2---2---%---5----4----5----4----5----2----|
A|-0-------------------------------|---------|-0---0---0-------0----0----0----0----0----0----|
E|---------------------------------|---------|-----------------------------------------------|

E|-----------------------------------------------|-----------------------------------------------|
B|-----------------------------------------------|-----------------------------------------------|
G|-2---2---2---%----------------------------%----|-2---2---2---%----------------------------2----|
D|-2---2---2---%---5----4----5----4----5----%----|-2---2---2---%---5----4----5----4----5----2----|
A|-0---0---0-------0----0----0----0----0---------|-0---0---0-------0----0----0----0----0----0----|
E|-----------------------------------------------|-----------------------------------------------|

E|--------------------------------2----------|-----------------------------------------------|
B|--------------------------------3----------|-----------------------------------------------|
G|-2---2---2---%------------------2----------|-2---2---2---%----------------------------2----|
D|-2---2---2---%---5----4----5----0----------|-2---2---2---%---5----4----5----4----5----2----|
A|-0---0---0-------0----0----0----------0----|-0---0---0-------0----0----0----0----0----0----|
E|-------------------------------------------|-----------------------------------------------|

E|-----------------------------------------------|-----------------------------------------------|
B|-----------------------------------------------|-----------------------------------------------|
G|-2---2---2---%----------------------------%----|-2---2---2---%----------------------------2----|
D|-2---2---2---%---5----4----5----4----5----%----|-2---2---2---%---5----4----5----4----5----2----|
A|-0---0---0-------0----0----0----0----0---------|-0---0---0-------0----0----0----0----0----0----|
E|-----------------------------------------------|-----------------------------------------------|

E|--------------------------------2----------|-----------------------------------------------|
B|--------------------------------3----------|-----------------------------------------------|
G|-2---2---2---%------------------2----------|-2---2---2---%----------------------------2----|
D|-2---2---2---%---5----4----5----0----------|-2---2---2---%---5----4----5----4----5----2----|
A|-0---0---0-------0----0----0----------0----|-0---0---0-------0----0----0----0----0----0----|
E|-------------------------------------------|-----------------------------------------------|

E|-----------------------------------------------|-----------------------------------------------|
B|-----------------------------------------------|-----------------------------------------------|
G|-2---2---2---%----------------------------%----|-2---2---2---%----------------------------2----|
D|-2---2---2---%---5----4----5----4----5----%----|-2---2---2---%---5----4----5----4----5----2----|
A|-0---0---0-------0----0----0----0----0---------|-0---0---0-------0----0----0----0----0----0----|
E|-----------------------------------------------|-----------------------------------------------|

E|--------------------------------2----------|-----------------------------------------------|
B|--------------------------------3----------|-----------------------------------------------|
G|-2---2---2---%------------------2----------|-2---2---2---%----------------------------2----|
D|-2---2---2---%---5----4----5----0----------|-2---2---2---%---5----4----5----4----5----2----|
A|-0---0---0-------0----0----0----------0----|-0---0---0-------0----0----0----0----0----0----|
E|-------------------------------------------|-----------------------------------------------|

E|-----------------------------------------------|-----------------------------------------------|
B|-----------------------------------------------|-----------------------------------------------|
G|-2---2---2---%----------------------------%----|-2---2---2---%----------------------------2----|
D|-2---2---2---%---5----4----5----4----5----%----|-2---2---2---%---5----4----5----4----5----2----|
A|-0---0---0-------0----0----0----0----0---------|-0---0---0-------0----0----0----0----0----0----|
E|-----------------------------------------------|-----------------------------------------------|

E|--------------------------------2----------|-----------------------------------------------|
B|--------------------------------3----------|-----------------------------------------------|
G|-2---2---2---%------------------2----------|-2---2---2---%----------------------------2----|
D|-2---2---2---%---5----4----5----0----------|-2---2---2---%---5----4----5----4----5----2----|
A|-0---0---0-------0----0----0----------0----|-0---0---0-------0----0----0----0----0----0----|
E|-------------------------------------------|-----------------------------------------------|

E|-----------------------------------------------|-----------------------------------------------|
B|-----------------------------------------------|-----------------------------------------------|
G|-2---2---2---%----------------------------%----|-2---2---2---%----------------------------2----|
D|-2---2---2---%---5----4----5----4----5----%----|-2---2---2---%---5----4----5----4----5----2----|
A|-0---0---0-------0----0----0----0----0---------|-0---0---0-------0----0----0----0----0----0----|
E|-----------------------------------------------|-----------------------------------------------|

E|--------------------------------2----------|--------------------|--------------------|
B|--------------------------------3----------|--------------------|--------------------|
G|-2---2---2---%------------------2----------|-7------------------|--------------------|
D|-2---2---2---%---5----4----5----0----------|-7------5------5----|-8------3------3----|
A|-0---0---0-------0----0----0----------0----|-5------5------5----|-8------3------3----|
E|-------------------------------------------|--------3------3----|-6------1------1----|

E|-------------------------------------|-----------------------------------------|--------------------|
B|-------------------------------------|-----------------------------------------|--------------------|
G|-5-----5----5----5----5----5----5----|-5----5----5----5----5----5----5----5----|-7------------------|
D|-5-----5----5----5----5----5----5----|-5----5----5----5----5----5----5----5----|-7------5------5----|
A|-3-----3----3----3----3----3----3----|-3----3----3----3----3----3----3----3----|-5------5------5----|
E|-------------------------------------|-----------------------------------------|--------3------3----|

E|--------------------|-------------------------------------|-----------------------------------------|
B|--------------------|-------------------------------------|-----------------------------------------|
G|--------------------|-5-----5----5----5----5----5----5----|-5----5----5----5----5----5----5----5----|
D|-8------3------3----|-5-----5----5----5----5----5----5----|-5----5----5----5----5----5----5----5----|
A|-8------3------3----|-3-----3----3----3----3----3----3----|-3----3----3----3----3----3----3----3----|
E|-6------1------1----|-------------------------------------|-----------------------------------------|

E|-------3----2----3----2----3---------|-------3----2----3----2-----2----|-------3----2----3----2----3---------|
B|-------3----3----3----3----3---------|-------3----3----3----3-----3----|-------3----3----3----3----3---------|
G|-2-----0----2----0----2----0----2----|-2-----0----2----0----2-----2----|-2-----0----2----0----2----0----2----|
D|-2-----0----0----0----0----0----2----|-2-----0----0----0----0-----0----|-2-----0----0----0----0----0----2----|
A|-0------------------------------0----|-0-------------------------------|-0------------------------------0----|
E|-------------------------------------|---------------------------------|-------------------------------------|

E|-------3----2----3-----2-----|-------3----2----3----2----3---------|-------3----2----3----2-----2----|
B|-------3----3----3-----3-----|-------3----3----3----3----3---------|-------3----3----3----3-----3----|
G|-2-----0----2----0-----2-----|-2-----0----2----0----2----0----2----|-2-----0----2----0----2-----2----|
D|-2-----0----0----0-----0-----|-2-----0----0----0----0----0----2----|-2-----0----0----0----0-----0----|
A|-0---------------------------|-0------------------------------0----|-0-------------------------------|
E|-----------------------------|-------------------------------------|---------------------------------|

E|-------3----2----3----2-----2----|--------------------------------|-----------------------------------------------|
B|-------3----3----3----3-----3----|--------------------------------|-----------------------------------------------|
G|-2-----0----2----0----2-----2----|--------------------------------|-2---2---2---%----------------------------2----|
D|-2-----0----0----0----0-----0----|-------------------2-----2------|-2---2---2---%---5----4----5----4----5----2----|
A|-0-------------------------------|-------------------2-----2------|-0---0---0-------0----0----0----0----0----0----|
E|---------------------------------|-3---2---0----0----0-----0------|-----------------------------------------------|

E|-----------------------------------------------|-----------------------------------------------|
B|-----------------------------------------------|-----------------------------------------------|
G|-2---2---2---%----------------------------%----|-2---2---2---%----------------------------2----|
D|-2---2---2---%---5----4----5----4----5----%----|-2---2---2---%---5----4----5----4----5----2----|
A|-0---0---0-------0----0----0----0----0---------|-0---0---0-------0----0----0----0----0----0----|
E|-----------------------------------------------|-----------------------------------------------|

E|--------------------------------2----------|-----------------------------------------------|
B|--------------------------------3----------|-----------------------------------------------|
G|-2---2---2---%------------------2----------|-2---2---2---%----------------------------2----|
D|-2---2---2---%---5----4----5----0----------|-2---2---2---%---5----4----5----4----5----2----|
A|-0---0---0-------0----0----0----------0----|-0---0---0-------0----0----0----0----0----0----|
E|-------------------------------------------|-----------------------------------------------|

E|-----------------------------------------------|-----------------------------------------------|
B|-----------------------------------------------|-----------------------------------------------|
G|-2---2---2---%----------------------------%----|-2---2---2---%----------------------------2----|
D|-2---2---2---%---5----4----5----4----5----%----|-2---2---2---%---5----4----5----4----5----2----|
A|-0---0---0-------0----0----0----0----0---------|-0---0---0-------0----0----0----0----0----0----|
E|-----------------------------------------------|-----------------------------------------------|

E|--------------------------------2----------|-----------------------------------------------|
B|--------------------------------3----------|-----------------------------------------------|
G|-2---2---2---%------------------2----------|-2---2---2---%----------------------------2----|
D|-2---2---2---%---5----4----5----0----------|-2---2---2---%---5----4----5----4----5----2----|
A|-0---0---0-------0----0----0----------0----|-0---0---0-------0----0----0----0----0----0----|
E|-------------------------------------------|-----------------------------------------------|

E|-----------------------------------------------|-----------------------------------------------|
B|-----------------------------------------------|-----------------------------------------------|
G|-2---2---2---%----------------------------%----|-2---2---2---%----------------------------2----|
D|-2---2---2---%---5----4----5----4----5----%----|-2---2---2---%---5----4----5----4----5----2----|
A|-0---0---0-------0----0----0----0----0---------|-0---0---0-------0----0----0----0----0----0----|
E|-----------------------------------------------|-----------------------------------------------|

E|--------------------------------2----------|-----------------------------------------------|
B|--------------------------------3----------|-----------------------------------------------|
G|-2---2---2---%------------------2----------|-2---2---2---%----------------------------2----|
D|-2---2---2---%---5----4----5----0----------|-2---2---2---%---5----4----5----4----5----2----|
A|-0---0---0-------0----0----0----------0----|-0---0---0-------0----0----0----0----0----0----|
E|-------------------------------------------|-----------------------------------------------|

E|-----------------------------------------------|-----------------------------------------------|
B|-----------------------------------------------|-----------------------------------------------|
G|-2---2---2---%----------------------------%----|-2---2---2---%----------------------------2----|
D|-2---2---2---%---5----4----5----4----5----%----|-2---2---2---%---5----4----5----4----5----2----|
A|-0---0---0-------0----0----0----0----0---------|-0---0---0-------0----0----0----0----0----0----|
E|-----------------------------------------------|-----------------------------------------------|

E|--------------------------------2----------|--------------------|--------------------|
B|--------------------------------3----------|--------------------|--------------------|
G|-2---2---2---%------------------2----------|-7------------------|--------------------|
D|-2---2---2---%---5----4----5----0----------|-7------5------5----|-8------3------3----|
A|-0---0---0-------0----0----0----------0----|-5------5------5----|-8------3------3----|
E|-------------------------------------------|--------3------3----|-6------1------1----|

E|-------------------------------------|-----------------------------------------|--------------------|
B|-------------------------------------|-----------------------------------------|--------------------|
G|-5-----5----5----5----5----5----5----|-5----5----5----5----5----5----5----5----|-7------------------|
D|-5-----5----5----5----5----5----5----|-5----5----5----5----5----5----5----5----|-7------5------5----|
A|-3-----3----3----3----3----3----3----|-3----3----3----3----3----3----3----3----|-5------5------5----|
E|-------------------------------------|-----------------------------------------|--------3------3----|

E|--------------------|-------------------------------------|-----------------------------------------|
B|--------------------|-------------------------------------|-----------------------------------------|
G|--------------------|-5-----5----5----5----5----5----5----|-5----5----5----5----5----5----5----5----|
D|-8------3------3----|-5-----5----5----5----5----5----5----|-5----5----5----5----5----5----5----5----|
A|-8------3------3----|-3-----3----3----3----3----3----3----|-3----3----3----3----3----3----3----3----|
E|-6------1------1----|-------------------------------------|-----------------------------------------|

E|-------3----2----3----2----3---------|-------3----2----3----2-----2----|-------3----2----3----2----3---------|
B|-------3----3----3----3----3---------|-------3----3----3----3-----3----|-------3----3----3----3----3---------|
G|-2-----0----2----0----2----0----2----|-2-----0----2----0----2-----2----|-2-----0----2----0----2----0----2----|
D|-2-----0----0----0----0----0----2----|-2-----0----0----0----0-----0----|-2-----0----0----0----0----0----2----|
A|-0------------------------------0----|-0-------------------------------|-0------------------------------0----|
E|-------------------------------------|---------------------------------|-------------------------------------|

E|-------3----2----3-----2-----|-------3----2----3----2----3---------|-------3----2----3----2-----2----|
B|-------3----3----3-----3-----|-------3----3----3----3----3---------|-------3----3----3----3-----3----|
G|-2-----0----2----0-----2-----|-2-----0----2----0----2----0----2----|-2-----0----2----0----2-----2----|
D|-2-----0----0----0-----0-----|-2-----0----0----0----0----0----2----|-2-----0----0----0----0-----0----|
A|-0---------------------------|-0------------------------------0----|-0-------------------------------|
E|-----------------------------|-------------------------------------|---------------------------------|

E|-------3----2----3----2-----2----|--------------------------------|---------|---------|
B|-------3----3----3----3-----3----|--------------------------------|---------|---------|
G|-2-----0----2----0----2-----2----|--------------------------------|-%-------|-%-------|
D|-2-----0----0----0----0-----0----|-------------------2-----2------|-%-------|-%-------|
A|-0-------------------------------|-------------------2-----2------|---------|---------|
E|---------------------------------|-3---2---0----0----0-----0------|---------|---------|

E|--------------------|---------------------------------|------------------------------------|
B|--------------------|---------------------------------|------------------------------------|
G|---------------7----|-5-------------------------------|-5----%-----------------------------|
D|-7------7-----------|-----7-----7-----7----5----7-----|------%----7-----5-----5----5---5---|
A|--------------------|---------------------------------|------------------------------------|
E|--------------------|---------------------------------|------------------------------------|

E|-------------------------------------|------------5--------------------------|-------------------------------------|
B|-------------------------------------|-8-----8--------8---5------------------|-------------------------------------|
G|-%----7-----7----7-----5---7---%-----|------------------------7----5---7-----|-5----5--------------7-----5----5----|
D|-%-----------------------------%-----|---------------------------------------|-----------7----5--------------------|
A|-------------------------------------|---------------------------------------|-------------------------------------|
E|-------------------------------------|---------------------------------------|-------------------------------------|

E|----------5---5-----5-------------------|------12----12---8---------------|-8--------------------------------8----10---|
B|------8-----------------8---------------|----------------------10---10----|-------10--8-----------10----10-------------|
G|-%---------------------------5-----5----|-%-------------------------------|---------------9---%------------------------|
D|-%--------------------------------------|-%-------------------------------|-------------------%------------------------|
A|----------------------------------------|---------------------------------|--------------------------------------------|
E|----------------------------------------|---------------------------------|--------------------------------------------|

E|-10------10---8-------------------------------|--------------------|-----------------------------------------|
B|-------------------10-------------------------|--------------------|-----------------------------------------|
G|-----%------------------9----7----7-----7-----|-7-------------3----|-3----3----3----3----3----3----3---------|
D|-----%----------------------------------------|-7------5------3----|-3----3----3----3----3----3----3----3----|
A|----------------------------------------------|-5------5------1----|-1----1----1----1----1----1----1----3----|
E|----------------------------------------------|--------3-----------|------------------------------------1----|

E|-------------------------------------|---------------------------------|--------------------|
B|-------------------------------------|---------------------------------|--------------------|
G|-------------------------------------|---------------------------------|-7------------------|
D|-3----5----5----3----5-----5----3----|-3----5----5----3----5-----5-----|-7------5------5----|
A|-3----5----5----3----5-----5----3----|-3----5----5----3----5-----5-----|-5------5------5----|
E|-1----3----3----1----3-----3----1----|-1----3----3----1----3-----3-----|--------3------3----|

E|--------------------|-------------------------------------|-----------------------------------------|
B|--------------------|-------------------------------------|-----------------------------------------|
G|--------------------|-5-----5----5----5----5----5----5----|-5----5----5----5----5----5----5----5----|
D|-8------3------3----|-5-----5----5----5----5----5----5----|-5----5----5----5----5----5----5----5----|
A|-8------3------3----|-3-----3----3----3----3----3----3----|-3----3----3----3----3----3----3----3----|
E|-6------1------1----|-------------------------------------|-----------------------------------------|

E|-------3----2----3----2----3---------|-------3----2----3----2-----2----|-------3----2----3----2----3---------|
B|-------3----3----3----3----3---------|-------3----3----3----3-----3----|-------3----3----3----3----3---------|
G|-2-----0----2----0----2----0----2----|-2-----0----2----0----2-----2----|-2-----0----2----0----2----0----2----|
D|-2-----0----0----0----0----0----2----|-2-----0----0----0----0-----0----|-2-----0----0----0----0----0----2----|
A|-0------------------------------0----|-0-------------------------------|-0------------------------------0----|
E|-------------------------------------|---------------------------------|-------------------------------------|

E|-------3----2----3-----2-----|-------3----2----3----2----3---------|-------3----2----3----2-----2----|
B|-------3----3----3-----3-----|-------3----3----3----3----3---------|-------3----3----3----3-----3----|
G|-2-----0----2----0-----2-----|-2-----0----2----0----2----0----2----|-2-----0----2----0----2-----2----|
D|-2-----0----0----0-----0-----|-2-----0----0----0----0----0----2----|-2-----0----0----0----0-----0----|
A|-0---------------------------|-0------------------------------0----|-0-------------------------------|
E|-----------------------------|-------------------------------------|---------------------------------|

E|-------3----2----3----2----3---------|-------3----2----3-----2-----|-------3----2----3----2----3---------|
B|-------3----3----3----3----3---------|-------3----3----3-----3-----|-------3----3----3----3----3---------|
G|-2-----0----2----0----2----0----2----|-2-----0----2----0-----2-----|-2-----0----2----0----2----0----2----|
D|-2-----0----0----0----0----0----2----|-2-----0----0----0-----0-----|-2-----0----0----0----0----0----2----|
A|-0------------------------------0----|-0---------------------------|-0------------------------------0----|
E|-------------------------------------|-----------------------------|-------------------------------------|

E|-------3----2----3----2-----2----|-------3----2----3----2----3---------|-------3----2----3-----2-----|
B|-------3----3----3----3-----3----|-------3----3----3----3----3---------|-------3----3----3-----3-----|
G|-2-----0----2----0----2-----2----|-2-----0----2----0----2----0----2----|-2-----0----2----0-----2-----|
D|-2-----0----0----0----0-----0----|-2-----0----0----0----0----0----2----|-2-----0----0----0-----0-----|
A|-0-------------------------------|-0------------------------------0----|-0---------------------------|
E|---------------------------------|-------------------------------------|-----------------------------|

E|-------3----2----3----2----3---------|-------3----2----3----2-----2----|-------3----2----3----2-----2----|
B|-------3----3----3----3----3---------|-------3----3----3----3-----3----|-------3----3----3----3-----3----|
G|-2-----0----2----0----2----0----2----|-2-----0----2----0----2-----2----|-2-----0----2----0----2-----2----|
D|-2-----0----0----0----0----0----2----|-2-----0----0----0----0-----0----|-2-----0----0----0----0-----0----|
A|-0------------------------------0----|-0-------------------------------|-0-------------------------------|
E|-------------------------------------|---------------------------------|---------------------------------|

E|--------------------------------|-------3----2----3----2-----2----|-2-------|-------------------|
B|--------------------------------|-------3----3----3----3-----3----|-3-------|-------------------|
G|--------------------------------|-2-----0----2----0----2-----2----|-2-------|-%----2-------2----|
D|-------------------2-----2------|-2-----0----0----0----0-----0----|-0-------|-%----2-------2----|
A|-------------------2-----2------|-0-------------------------------|---------|------0-------0----|
E|-3---2---0----0----0-----0------|---------------------------------|---------|-------------------|
AC-DC - Cover You In Oil
AC-DC - Cover You In Oil.gp4