AC-DC - D.T

AC-DC



Title: D.T
Album: Who made who
Artist: AC/DC
Author: Malcolm Young - Angus Young

Track 1: Guitar I
E|---------|---------|-----------------------------------------------|-------------------------------|
B|---------|---------|---------------------------------------4----4--|-4------3------1---------------|
G|-%-------|-%-------|-5-----5---3---3---5----5----0----3----3----3--|-3------3----------2-----------|
D|-%-------|-%-------|-5-----5---3---3---5----5----------------------|-----------------------3-------|
A|---------|---------|-3-----3-----------3----3----------------------|---------------------------3---|
E|---------|---------|-----------------------------------------------|-------------------------------|

E|-----------------------------------------------|-------------------------------|-----------------------------------------------|
B|---------------------------------------4----4--|-4------3------1---------------|---------------------------------------4----4--|
G|-5-----5---3---3---5----5----0----3----3----3--|-3------3----------2-----------|-5-----5---3---3---5----5----0----3----3----3--|
D|-5-----5---3---3---5----5----------------------|-----------------------3-------|-5-----5---3---3---5----5----------------------|
A|-3-----3-----------3----3----------------------|---------------------------3---|-3-----3-----------3----3----------------------|
E|-----------------------------------------------|-------------------------------|-----------------------------------------------|

E|-------------------------------|-----------------------------------------------|-------------------------------|
B|-4------3------1---------------|---------------------------------------4----4--|-4------3------1---------------|
G|-3------3----------2-----------|-5-----5---3---3---5----5----0----3----3----3--|-3------3----------2-----------|
D|-----------------------3-------|-5-----5---3---3---5----5----------------------|-----------------------3-------|
A|---------------------------3---|-3-----3-----------3----3----------------------|---------------------------3---|
E|-------------------------------|-----------------------------------------------|-------------------------------|

E|---------------------------------------|---------|---------------------------------------|
B|---------------------------------------|---------|---------------------------------------|
G|-5-----5---3---3---5----5----%------%--|-%-------|-5-----5---3---3---5----5----%------%--|
D|-5-----5---3---3---5----5----%------%--|-%-------|-5-----5---3---3---5----5----%------%--|
A|-3-----3-----------3----3--------------|---------|-3-----3-----------3----3--------------|
E|---------------------------------------|---------|---------------------------------------|

E|----------------------------|-----------------------------|-----------------------------|
B|----------------------------|-----------------------------|-----------------------------|
G|-%-----------3----5----5----|-5------3--------------------|------------------3----3-----|
D|-%------5----3----5----5----|-5------3----5----3----3-----|-3------3----5----3----3-----|
A|--------5----1----3----3----|-3------1----5----3----3-----|-3------3----5----1----1-----|
E|--------3-------------------|-------------3----1----1-----|-1------1----3---------------|

E|-------------------------|----------------------------|-----------------------------|
B|-------------------------|----------------------------|-----------------------------|
G|-3-----------------------|-------------3----5----5----|-5------3--------------------|
D|-3------3----5----3------|-3------5----3----5----5----|-5------3----5----3----3-----|
A|-1------3----5----3------|-3------5----1----3----3----|-3------1----5----3----3-----|
E|--------1----3----1------|-1------3-------------------|-------------3----1----1-----|

E|-----------------------------|-------------------------|----------------------------|
B|-----------------------------|-------------------------|----------------------------|
G|------------------3----3-----|-3-----------------------|------------------3----%----|
D|-3------3----5----3----3-----|-3------3----5----3------|-3------3----5----3----%----|
A|-3------3----5----1----1-----|-1------3----5----3------|-3------3----5----1---------|
E|-1------1----3---------------|--------1----3----1------|-1------1----3--------------|

E|---------------------------------------|----------------------------|-----------------------------|
B|---------------------------------------|----------------------------|-----------------------------|
G|-5-----5---3---3---5----5----%------%--|-%-----------3----5----5----|-5------3--------------------|
D|-5-----5---3---3---5----5----%------%--|-%------5----3----5----5----|-5------3----5----3----3-----|
A|-3-----3-----------3----3--------------|--------5----1----3----3----|-3------1----5----3----3-----|
E|---------------------------------------|--------3-------------------|-------------3----1----1-----|

E|-----------------------------|-------------------------|----------------------------|
B|-----------------------------|-------------------------|----------------------------|
G|------------------3----3-----|-3-----------------------|-------------3----5----5----|
D|-3------3----5----3----3-----|-3------3----5----3------|-3------5----3----5----5----|
A|-3------3----5----1----1-----|-1------3----5----3------|-3------5----1----3----3----|
E|-1------1----3---------------|--------1----3----1------|-1------3-------------------|

E|-----------------------------|-----------------------------|-------------------------|
B|-----------------------------|-----------------------------|-------------------------|
G|-5------3--------------------|------------------3----3-----|-3-----------------------|
D|-5------3----5----3----3-----|-3------3----5----3----3-----|-3------3----5----3------|
A|-3------1----5----3----3-----|-3------3----5----1----1-----|-1------3----5----3------|
E|-------------3----1----1-----|-1------1----3---------------|--------1----3----1------|

E|----------------------------|-----------------------------------------------|-------------------------------|
B|----------------------------|---------------------------------------4----4--|-4------3------1---------------|
G|------------------3----%----|-5-----5---3---3---5----5----0----3----3----3--|-3------3----------2-----------|
D|-3------3----5----3----%----|-5-----5---3---3---5----5----------------------|-----------------------3-------|
A|-3------3----5----1---------|-3-----3-----------3----3----------------------|---------------------------3---|
E|-1------1----3--------------|-----------------------------------------------|-------------------------------|

E|-----------------------------------------------|-------------------------------|-----------------------------------------------|
B|---------------------------------------4----4--|-4------3------1---------------|---------------------------------------4----4--|
G|-5-----5---3---3---5----5----0----3----3----3--|-3------3----------2-----------|-5-----5---3---3---5----5----0----3----3----3--|
D|-5-----5---3---3---5----5----------------------|-----------------------3-------|-5-----5---3---3---5----5----------------------|
A|-3-----3-----------3----3----------------------|---------------------------3---|-3-----3-----------3----3----------------------|
E|-----------------------------------------------|-------------------------------|-----------------------------------------------|

E|-------------------------------|-----------------------------------------------|-------------------------------|
B|-4------3------1---------------|---------------------------------------4----4--|-4------3------1---------------|
G|-3------3----------2-----------|-5-----5---3---3---5----5----0----3----3----3--|-3------3----------2-----------|
D|-----------------------3-------|-5-----5---3---3---5----5----------------------|-----------------------3-------|
A|---------------------------3---|-3-----3-----------3----3----------------------|---------------------------3---|
E|-------------------------------|-----------------------------------------------|-------------------------------|

E|---------------------------------------|---------|---------|--------------------------------------------|
B|---------------------------------------|---------|---------|--------------------------------------------|
G|-5-----5---3---3---5----5----%------%--|-%-------|-%-------|---------------------%--------------4----4--|
D|-5-----5---3---3---5----5----%------%--|-%-------|-%-------|-5-----5---3----5----%--------------3----3--|
A|-3-----3-----------3----3--------------|---------|---------|-5-----5---3----5---------3----3----5----5--|
E|---------------------------------------|---------|---------|--------------------------------------------|

E|----------------------------|--------------------------------------------|----------------------------|
B|--------3-------------------|--------------------------------------------|--------3-------------------|
G|-4------3------5---2--------|---------------------%--------------4----4--|-4------3------5---2--------|
D|-3------3--------------3----|-5-----5---3----5----%--------------3----3--|-3------3--------------3----|
A|-5--------------------------|-5-----5---3----5---------3----3----5----5--|-5--------------------------|
E|----------------------------|--------------------------------------------|----------------------------|

E|--------------------------------------------|----------------------------|--------------------------------------------|
B|--------------------------------------------|--------3-------------------|--------------------------------------------|
G|---------------------%--------------4----4--|-4------3------5---2--------|---------------------%--------------4----4--|
D|-5-----5---3----5----%--------------3----3--|-3------3--------------3----|-5-----5---3----5----%--------------3----3--|
A|-5-----5---3----5---------3----3----5----5--|-5--------------------------|-5-----5---3----5---------3----3----5----5--|
E|--------------------------------------------|----------------------------|--------------------------------------------|

E|----------------------------|--------------------------------------------|----------------------------|
B|--------3-------------------|--------------------------------------------|--------3-------------------|
G|-4------3------5---2--------|---------------------%--------------4----4--|-4------3------5---2--------|
D|-3------3--------------3----|-5-----5---3----5----%--------------3----3--|-3------3--------------3----|
A|-5--------------------------|-5-----5---3----5---------3----3----5----5--|-5--------------------------|
E|----------------------------|--------------------------------------------|----------------------------|

E|--------------------------------------------|----------------------------|-----------------------------------------------|
B|--------------------------------------------|--------3-------------------|---------------------------------------4----4--|
G|---------------------%--------------4----4--|-4------3------5---2--------|-5-----5---3---3---5----5----0----3----3----3--|
D|-5-----5---3----5----%--------------3----3--|-3------3--------------3----|-5-----5---3---3---5----5----------------------|
A|-5-----5---3----5---------3----3----5----5--|-5--------------------------|-3-----3-----------3----3----------------------|
E|--------------------------------------------|----------------------------|-----------------------------------------------|

E|-------------------------------|
B|-4------3------1---------------|
G|-3------3----------2-----------|
D|-----------------------3-------|
A|---------------------------3---|
E|-------------------------------|
AC-DC - D.T
AC-DC - D.T.gp4