AC-DC - Gimme A Bullet

AC-DC



Title: Gimme a Bullet
Album: Powerage
Artist: AC-DC
Author: 

Track 1: Guitare 1
E|-------------------------------------|-------------------------------------|-------------------------------------|
B|-------------------------------------|-------------------------------------|-------------------------------------|
G|------%---------%---------2-----0----|------%---------%---------2-----0----|------%---------%---------2-----2----|
D|-2----%----2----%---------0-----0----|-2----%----2----%---------0-----0----|-2----%----2----%---------0-----2----|
A|-0---------0---------3---------------|-0---------0---------3---------------|-0---------0---------3---------------|
E|-------------------------------------|-------------------------------------|-------------------------------------|

E|-------------------------------------|-------------------------------------|-------------------------------------|
B|-------------------------------------|-------------------------------------|-------------------------------------|
G|------%---------%---------2-----0----|------%---------%---------2-----0----|------%---------%---------2-----0----|
D|-2----%----2----%---------0-----0----|-2----%----2----%---------0-----0----|-2----%----2----%---------0-----0----|
A|-0---------0---------3---------------|-0---------0---------3---------------|-0---------0---------3---------------|
E|-------------------------------------|-------------------------------------|-------------------------------------|

E|-------------------------------------|-------------------------------------|-------------------------------------|
B|-------------------------------------|-------------------------------------|-------------------------------------|
G|------%---------%---------2-----2----|------%---------%---------2-----0----|------%---------%---------2-----0----|
D|-2----%----2----%---------0-----2----|-2----%----2----%---------0-----0----|-2----%----2----%---------0-----0----|
A|-0---------0---------3---------------|-0---------0---------3---------------|-0---------0---------3---------------|
E|-------------------------------------|-------------------------------------|-------------------------------------|

E|-------------------------------------|-------------------------------------|-------------------------------------|
B|-------------------------------------|-------------------------------------|-------------------------------------|
G|------%---------%---------2-----0----|------%---------%---------2-----2----|------%---------%---------2-----0----|
D|-2----%----2----%---------0-----0----|-2----%----2----%---------0-----2----|-2----%----2----%---------0-----0----|
A|-0---------0---------3---------------|-0---------0---------3---------------|-0---------0---------3---------------|
E|-------------------------------------|-------------------------------------|-------------------------------------|

E|-------------------------------------|-------------------------------------|-------------------------------------|
B|-------------------------------------|-------------------------------------|-------------------------------------|
G|------%---------%---------2-----0----|------%---------%---------2-----0----|------%---------%---------2-----2----|
D|-2----%----2----%---------0-----0----|-2----%----2----%---------0-----0----|-2----%----2----%---------0-----2----|
A|-0---------0---------3---------------|-0---------0---------3---------------|-0---------0---------3---------------|
E|-------------------------------------|-------------------------------------|-------------------------------------|

E|-------------------------------------|-----------------------3----|--------3--------------3----|
B|-------------------------------------|-------------3----3----3----|-3------3----3----3----3----|
G|------%---------%---------2-----0----|-2------2----2----2----0----|-0------0----2----2----0----|
D|-2----%----2----%---------0-----0----|-2------2----0----0---------|-------------0----0---------|
A|-0---------0---------3---------------|-0------0-------------------|----------------------------|
E|-------------------------------------|----------------------------|----------------------------|

E|--------3-------------------|---------|-----------------------3----|--------3--------------3----|
B|-3------3----3----3---------|---------|-------------3----3----3----|-3------3----3----3----3----|
G|-0------0----2----2----2----|-2-------|-2------2----2----2----0----|-0------0----2----2----0----|
D|-0------0----0----0----2----|-2-------|-2------2----0----0---------|-------------0----0---------|
A|-----------------------0----|-0-------|-0------0-------------------|----------------------------|
E|----------------------------|---------|----------------------------|----------------------------|

E|--------3-------------------|---------|-----------------------3----|--------3--------------3----|
B|-3------3----3----3---------|---------|-------------3----3----3----|-3------3----3----3----3----|
G|-0------0----2----2----2----|-2-------|-2------2----2----2----0----|-0------0----2----2----0----|
D|-0------0----0----0----2----|-2-------|-2------2----0----0---------|-------------0----0---------|
A|-----------------------0----|-0-------|-0------0-------------------|----------------------------|
E|----------------------------|---------|----------------------------|----------------------------|

E|--------3-------------------|---------|-----------------------3----|--------3--------------3----|
B|-3------3----3----3---------|---------|-------------3----3----3----|-3------3----3----3----3----|
G|-0------0----2----2----2----|-2-------|-2------2----2----2----0----|-0------0----2----2----0----|
D|-0------0----0----0----2----|-2-------|-2------2----0----0---------|-------------0----0---------|
A|-----------------------0----|-0-------|-0------0-------------------|----------------------------|
E|----------------------------|---------|----------------------------|----------------------------|

E|--------3-------------------|---------|-----------------------------|---------------------------------|
B|-3------3----3----3---------|---------|-----------------------------|---------------------------------|
G|-0------0----2----2----2----|-2-------|-5-----5-----5-----5----5----|-7-----7-----7----7----7----7----|
D|-0------0----0----0----2----|-2-------|-5-----5-----5-----5----5----|-7-----7-----7----7----7----7----|
A|-----------------------0----|-0-------|-3-----3-----3-----3----3----|-5-----5-----5----5----5----5----|
E|----------------------------|---------|-----------------------------|---------------------------------|

E|-----------------------------|---------------------------------|-----------------------------|
B|-----------------------------|---------------------------------|-----------------------------|
G|-5-----5-----5-----5----5----|-7-----7-----7----7----7----7----|-5-----5-----5-----5----5----|
D|-5-----5-----5-----5----5----|-7-----7-----7----7----7----7----|-5-----5-----5-----5----5----|
A|-3-----3-----3-----3----3----|-5-----5-----5----5----5----5----|-3-----3-----3-----3----3----|
E|-----------------------------|---------------------------------|-----------------------------|

E|---------------------------------|---------------------------------|-----------------------------|
B|---------------------------------|---------------------------------|-----------------------------|
G|-7-----7-----7----7----7----7----|----------------------------4----|-4-----4----4----4-----4-----|
D|-7-----7-----7----7----7----7----|-3-----3-----3----3----3----5----|-5-----5----5----5-----5-----|
A|-5-----5-----5----5----5----5----|-3-----3-----3----3----3----5----|-5-----5----5----5-----5-----|
E|---------------------------------|-1-----1-----1----1----1----3----|-3-----3----3----3-----3-----|

E|-------------------------------------|-------------------------------------|-------------------------------------|
B|-------------------------------------|-------------------------------------|-------------------------------------|
G|------%---------%---------2-----0----|------%---------%---------2-----0----|------%---------%---------2-----2----|
D|-2----%----2----%---------0-----0----|-2----%----2----%---------0-----0----|-2----%----2----%---------0-----2----|
A|-0---------0---------3---------------|-0---------0---------3---------------|-0---------0---------3---------------|
E|-------------------------------------|-------------------------------------|-------------------------------------|

E|-------------------------------------|-------------------------------------|-------------------------------------|
B|-------------------------------------|-------------------------------------|-------------------------------------|
G|------%---------%---------2-----0----|------%---------%---------2-----0----|------%---------%---------2-----0----|
D|-2----%----2----%---------0-----0----|-2----%----2----%---------0-----0----|-2----%----2----%---------0-----0----|
A|-0---------0---------3---------------|-0---------0---------3---------------|-0---------0---------3---------------|
E|-------------------------------------|-------------------------------------|-------------------------------------|

E|-------------------------------------|-------------------------------------|-----------------------3----|
B|-------------------------------------|-------------------------------------|-------------3----3----3----|
G|------%---------%---------2-----2----|------%---------%---------2-----0----|-2------2----2----2----0----|
D|-2----%----2----%---------0-----2----|-2----%----2----%---------0-----0----|-2------2----0----0---------|
A|-0---------0---------3---------------|-0---------0---------3---------------|-0------0-------------------|
E|-------------------------------------|-------------------------------------|----------------------------|

E|--------3--------------3----|--------3-------------------|---------|-----------------------3----|
B|-3------3----3----3----3----|-3------3----3----3---------|---------|-------------3----3----3----|
G|-0------0----2----2----0----|-0------0----2----2----2----|-2-------|-2------2----2----2----0----|
D|-------------0----0---------|-0------0----0----0----2----|-2-------|-2------2----0----0---------|
A|----------------------------|-----------------------0----|-0-------|-0------0-------------------|
E|----------------------------|----------------------------|---------|----------------------------|

E|--------3--------------3----|--------3-------------------|---------|-----------------------3----|
B|-3------3----3----3----3----|-3------3----3----3---------|---------|-------------3----3----3----|
G|-0------0----2----2----0----|-0------0----2----2----2----|-2-------|-2------2----2----2----0----|
D|-------------0----0---------|-0------0----0----0----2----|-2-------|-2------2----0----0---------|
A|----------------------------|-----------------------0----|-0-------|-0------0-------------------|
E|----------------------------|----------------------------|---------|----------------------------|

E|--------3--------------3----|--------3-------------------|---------|-----------------------3----|
B|-3------3----3----3----3----|-3------3----3----3---------|---------|-------------3----3----3----|
G|-0------0----2----2----0----|-0------0----2----2----2----|-2-------|-2------2----2----2----0----|
D|-------------0----0---------|-0------0----0----0----2----|-2-------|-2------2----0----0---------|
A|----------------------------|-----------------------0----|-0-------|-0------0-------------------|
E|----------------------------|----------------------------|---------|----------------------------|

E|--------3--------------3----|--------3-------------------|---------|-----------------------------|
B|-3------3----3----3----3----|-3------3----3----3---------|---------|-----------------------------|
G|-0------0----2----2----0----|-0------0----2----2----2----|-2-------|-5-----5-----5-----5----5----|
D|-------------0----0---------|-0------0----0----0----2----|-2-------|-5-----5-----5-----5----5----|
A|----------------------------|-----------------------0----|-0-------|-3-----3-----3-----3----3----|
E|----------------------------|----------------------------|---------|-----------------------------|

E|---------------------------------|-----------------------------|---------------------------------|
B|---------------------------------|-----------------------------|---------------------------------|
G|-7-----7-----7----7----7----7----|-5-----5-----5-----5----5----|-7-----7-----7----7----7----7----|
D|-7-----7-----7----7----7----7----|-5-----5-----5-----5----5----|-7-----7-----7----7----7----7----|
A|-5-----5-----5----5----5----5----|-3-----3-----3-----3----3----|-5-----5-----5----5----5----5----|
E|---------------------------------|-----------------------------|---------------------------------|

E|-----------------------------|---------------------------------|---------------------------------|
B|-----------------------------|---------------------------------|---------------------------------|
G|-5-----5-----5-----5----5----|-7-----7-----7----7----7----7----|----------------------------4----|
D|-5-----5-----5-----5----5----|-7-----7-----7----7----7----7----|-3-----3-----3----3----3----5----|
A|-3-----3-----3-----3----3----|-5-----5-----5----5----5----5----|-3-----3-----3----3----3----5----|
E|-----------------------------|---------------------------------|-1-----1-----1----1----1----3----|

E|-----------------------------|-----------------------3----|--------3--------------3----|
B|-----------------------------|-------------3----3----3----|-3------3----3----3----3----|
G|-4-----4----4----4-----4-----|-2------2----2----2----0----|-0------0----2----2----0----|
D|-5-----5----5----5-----5-----|-2------2----0----0---------|-------------0----0---------|
A|-5-----5----5----5-----5-----|-0------0-------------------|----------------------------|
E|-3-----3----3----3-----3-----|----------------------------|----------------------------|

E|--------3-------------------|---------|-----------------------3----|--------3--------------3----|
B|-3------3----3----3---------|---------|-------------3----3----3----|-3------3----3----3----3----|
G|-0------0----2----2----2----|-2-------|-2------2----2----2----0----|-0------0----2----2----0----|
D|-0------0----0----0----2----|-2-------|-2------2----0----0---------|-------------0----0---------|
A|-----------------------0----|-0-------|-0------0-------------------|----------------------------|
E|----------------------------|---------|----------------------------|----------------------------|

E|--------3-------------------|---------|-----------------------3----|--------3--------------3----|
B|-3------3----3----3---------|---------|-------------3----3----3----|-3------3----3----3----3----|
G|-0------0----2----2----2----|-2-------|-2------2----2----2----0----|-0------0----2----2----0----|
D|-0------0----0----0----2----|-2-------|-2------2----0----0---------|-------------0----0---------|
A|-----------------------0----|-0-------|-0------0-------------------|----------------------------|
E|----------------------------|---------|----------------------------|----------------------------|

E|--------3-------------------|---------|-----------------------3----|--------3--------------3----|
B|-3------3----3----3---------|---------|-------------3----3----3----|-3------3----3----3----3----|
G|-0------0----2----2----2----|-2-------|-2------2----2----2----0----|-0------0----2----2----0----|
D|-0------0----0----0----2----|-2-------|-2------2----0----0---------|-------------0----0---------|
A|-----------------------0----|-0-------|-0------0-------------------|----------------------------|
E|----------------------------|---------|----------------------------|----------------------------|

E|--------3-------------------|---------|-----------------------3----|-3----3----3----3---------------3----|
B|-3------3----3----3---------|---------|-------------3----3----3----|-3----3----3----3-----3----3----3----|
G|-0------0----2----2----2----|-2-------|-2------2----2----2----0----|-0----0----0----0-----2----2----0----|
D|-0------0----0----0----2----|-2-------|-2------2----0----0---------|----------------------0----0---------|
A|-----------------------0----|-0-------|-0------0-------------------|-------------------------------------|
E|----------------------------|---------|----------------------------|-------------------------------------|

E|-3----3----3----3--------------------|---------|-----------------------3----|-3----3----3----3---------------3----|
B|-3----3----3----3-----3----3---------|---------|-------------3----3----3----|-3----3----3----3-----3----3----3----|
G|-0----0----0----0-----2----2----2----|-2-------|-2------2----2----2----0----|-0----0----0----0-----2----2----0----|
D|----------------------0----0----2----|-2-------|-2------2----0----0---------|----------------------0----0---------|
A|--------------------------------0----|-0-------|-0------0-------------------|-------------------------------------|
E|-------------------------------------|---------|----------------------------|-------------------------------------|

E|-3----3----3----3--------------------|---------|-----------------------3----|-3----3----3----3---------------3----|
B|-3----3----3----3-----3----3---------|---------|-------------3----3----3----|-3----3----3----3-----3----3----3----|
G|-0----0----0----0-----2----2----2----|-2-------|-2------2----2----2----0----|-0----0----0----0-----2----2----0----|
D|----------------------0----0----2----|-2-------|-2------2----0----0---------|----------------------0----0---------|
A|--------------------------------0----|-0-------|-0------0-------------------|-------------------------------------|
E|-------------------------------------|---------|----------------------------|-------------------------------------|

E|-3----3----3----3--------------------|---------|-----------------------3----|-3----3----3----3---------------3----|
B|-3----3----3----3-----3----3---------|---------|-------------3----3----3----|-3----3----3----3-----3----3----3----|
G|-0----0----0----0-----2----2----2----|-2-------|-2------2----2----2----0----|-0----0----0----0-----2----2----0----|
D|----------------------0----0----2----|-2-------|-2------2----0----0---------|----------------------0----0---------|
A|--------------------------------0----|-0-------|-0------0-------------------|-------------------------------------|
E|-------------------------------------|---------|----------------------------|-------------------------------------|

E|-3----3----3----3----------------|---------|-------------------|
B|-3----3----3----3-----3-----3----|---------|-------------------|
G|-0----0----0----0-----2-----2----|-2-------|-2----%----%-------|
D|----------------------0-----0----|-2-------|-2----%----%-------|
A|---------------------------------|-0-------|-0-----------------|
E|---------------------------------|---------|-------------------|
AC-DC - Gimme A Bullet
AC-DC - Gimme A Bullet.gp4