AC-DC - Heatseeker

AC-DC - Heatseeker

AC-DC



Title: Heatseeker 
Album: Blow up your video
Artist: AC/DC 
Author: Angus & Malcolm Young - Brian Johnson

Track 1: Rhythm guitar
D#|------------------------|------0--------------------------|------0--------------------------|
A#|------------------------|---------------------------------|---------------------------------|
F#|-%------%-----X----4----|-4----4----4-----4-----4----2----|-4----4----4-----4-----4----2----|
C#|-%------%-----X----2----|-2----2----2-----2-----2----2----|-2---------2-----2-----2----2----|
G#|--------------X----2----|-2-------------------------------|---------------------------------|
D#|------------------------|---------------------------------|---------------------------------|

D#|------0----0-----0-----0---------|------0---------0-----0--------------|---------|
A#|---------------------------------|------0---------0-----0--------------|---------|
F#|-4----4----4-----4-----4----0----|-1--------------1-----1---------4----|-4-------|
C#|-2---------2-----2-----2---------|-----------X---------------0----4----|-4-------|
G#|---------------------------------|-----------X---------------0----2----|-2-------|
D#|---------------------------------|-------------------------------------|---------|

D#|---------|---------|---------|-----------------------------------------|-----------------------------------------|
A#|---------|---------|---------|-----------------------------------------|-----------------------------------------|
F#|-4-------|-4-------|-4-------|------4---------4---------4----4---------|-4----4----4----4----4---------4----4----|
C#|-4-------|-4-------|-4-------|------2----4----4---------4----2----4----|-4----4----4----4----2----4----4----4----|
G#|-2-------|-2-------|-2-------|-2-------------------2-------------------|-2---------------------------------------|
D#|---------|---------|---------|-----------------------------------------|-----------------------------------------|

D#|-----------------------------------------|-----------------------------------------|
A#|-----------------------------------------|-----------------------------------------|
F#|------4---------4---------4----4---------|-4----4----4----4----4---------4----4----|
C#|------2----4----4---------4----2----4----|-4----4----4----4----2----4----4----4----|
G#|-2-------------------2-------------------|-2---------------------------------------|
D#|-----------------------------------------|-----------------------------------------|

D#|-0-----------------------|-------------------------------------|-0-----------------------|
A#|--------4----4-----9-----|-9----9----9-----9----9----9----9----|--------5----5-----9-----|
F#|-2------4----4-----9-----|-9----9----9-----9----9----9----9----|-2------4----4-----9-----|
C#|-2------4----4-----9-----|-9----9----9-----9----9----9----9----|-2------4----4-----9-----|
G#|-0------2----2-----7-----|-7----7----7-----7----7----7----7----|-0------2----2-----7-----|
D#|-------------------0-----|-0----0----0-----0----0----0----0----|-------------------0-----|

D#|-------------------------------------|-----------------------------------------|
A#|-9----9----9-----9----9----9----9----|-----------------------------------------|
F#|-9----9----9-----9----9----9----9----|------4---------4---------4----4---------|
C#|-9----9----9-----9----9----9----9----|------2----4----4---------4----2----4----|
G#|-7----7----7-----7----7----7----7----|-2-------------------2-------------------|
D#|-0----0----0-----0----0----0----0----|-----------------------------------------|

D#|-----------------------------------------|-----------------------------------------|
A#|-----------------------------------------|-----------------------------------------|
F#|-4----4----4----4----4---------4----4----|------4---------4---------4----4---------|
C#|-4----4----4----4----2----4----4----4----|------2----4----4---------4----2----4----|
G#|-2---------------------------------------|-2-------------------2-------------------|
D#|-----------------------------------------|-----------------------------------------|

D#|-----------------------------------------|-----------------------------------------|
A#|-----------------------------------------|-----------------------------------------|
F#|-4----4----4----4----4---------4----4----|-4--------------4--------------4---------|
C#|-4----4----4----4----2----4----4----4----|-2----2----2----2----2----2----2----2----|
G#|-2---------------------------------------|-----------------------------------------|
D#|-----------------------------------------|-----------------------------------------|

D#|-----------------------------------------|-----------------------------------------|
A#|------2----------------------------------|-----------------------------------------|
F#|---------------------4-------------------|-4--------------4--------------4---------|
C#|-2----2----2----2----2----2----2----2----|-2----2----2----2----2----2----2----2----|
G#|-----------------------------------------|-----------------------------------------|
D#|-----------------------------------------|-----------------------------------------|

D#|-----------------------------------------|-0-----------------------|-------------------------------------|
A#|------2----------------------------------|--------4----4-----9-----|-9----9----9-----9----9----9----9----|
F#|---------------------4-------------------|-2------4----4-----9-----|-9----9----9-----9----9----9----9----|
C#|-2----2----2----2----2----2----2----2----|-2------4----4-----9-----|-9----9----9-----9----9----9----9----|
G#|-----------------------------------------|-0------2----2-----7-----|-7----7----7-----7----7----7----7----|
D#|-----------------------------------------|-------------------0-----|-0----0----0-----0----0----0----0----|

D#|-0-----------------------|-------------------------------------|-----------------------------------------|
A#|--------5----5-----9-----|-9----9----9-----9----9----9----9----|-----------------------------------------|
F#|-2------4----4-----9-----|-9----9----9-----9----9----9----9----|------4---------4---------4----4---------|
C#|-2------4----4-----9-----|-9----9----9-----9----9----9----9----|------2----4----4---------4----2----4----|
G#|-0------2----2-----7-----|-7----7----7-----7----7----7----7----|-2----2--------------2----2--------------|
D#|-------------------0-----|-0----0----0-----0----0----0----0----|-----------------------------------------|

D#|-----------------------------------------|-----------------------------------------|
A#|-----------------------------------------|-----------------------------------------|
F#|-4----4----4----4----4---------4----4----|------4---------4---------4----4---------|
C#|-4----4----4----4----2----4----4----4----|------2----4----4---------4----2----4----|
G#|-2---------------------------------------|-2----2--------------2----2--------------|
D#|-----------------------------------------|-----------------------------------------|

D#|-----------------------------------------|-----------------------------------------|
A#|-----------------------------------------|-----------------------------------------|
F#|-4----4----4----4----4---------4----4----|------4---------4---------4----4---------|
C#|-4----4----4----4----2----4----4----4----|------2----4----4---------4----2----4----|
G#|-2---------------------------------------|-2----2----2---------2----2----2---------|
D#|-----------------------------------------|-----------------------------------------|

D#|-----------------------------------------|---------------------------------|---------------------------------|
A#|-----------------------------------------|---------------------------------|---------------------------------|
F#|-4----4----4----4----4---------5----7----|-7-----7-----7----4----5----7----|-7-----7-----7----4----5----7----|
C#|-4----4----4----4----2----4----5----7----|-7-----7-----7----4----5----7----|-7-----7-----7----4----5----7----|
G#|-2----2----2----2--------------3----5----|-5-----5-----5----2----3----5----|-5-----5-----5----2----3----5----|
D#|-----------------------------------------|---------------------------------|---------------------------------|

D#|-----------------------------------------|-------------------------------------|
A#|-----------------------------------------|-------------------------------------|
F#|-7----4----5----7----7----4----5----7----|-7-----4----2----2----2----2----4----|
C#|-7----4----5----7----7----4----5----7----|-7-----4----2----2----2----2----4----|
G#|-5----2----3----5----5----2----3----5----|-5-----2----0----0----0----0----2----|
D#|-----------------------------------------|-------------------------------------|

D#|-----------------------------------------|-----------------------------------------|
A#|-----------------------------------------|-----------------------------------------|
F#|------4---------4---------4----4---------|-4----4----4----4----4---------4----4----|
C#|------2----4----4---------4----2----4----|-4----4----4----4----2----4----4----4----|
G#|-2----2--------------2----2--------------|-2---------------------------------------|
D#|-----------------------------------------|-----------------------------------------|

D#|-----------------------------------------|-----------------------------------------|
A#|-----------------------------------------|-----------------------------------------|
F#|------4---------4---------4----4---------|-4----4----4----4----4---------4----4----|
C#|------2----4----4---------4----2----4----|-4----4----4----4----2----4----4----4----|
G#|-2----2--------------2----2--------------|-2---------------------------------------|
D#|-----------------------------------------|-----------------------------------------|

D#|-----------------------------------------|-----------------------------------------|
A#|-----------------------------------------|------2----------------------------------|
F#|-4--------------4--------------4---------|---------------------4-------------------|
C#|-2----2----2----2----2----2----2----2----|-2----2----2----2----2----2----2----2----|
G#|-----------------------------------------|-----------------------------------------|
D#|-----------------------------------------|-----------------------------------------|

D#|-----------------------------------------|-----------------------------------------|
A#|-----------------------------------------|------2----------------------------------|
F#|-4--------------4--------------4---------|---------------------4-------------------|
C#|-2----2----2----2----2----2----2----2----|-2----2----2----2----2----2----2----2----|
G#|-----------------------------------------|-----------------------------------------|
D#|-----------------------------------------|-----------------------------------------|

D#|-0-----------------------|-------------------------------------|-0-----------------------|
A#|--------4----4-----9-----|-9----9----9-----9----9----9----9----|--------5----5-----9-----|
F#|-2------4----4-----9-----|-9----9----9-----9----9----9----9----|-2------4----4-----9-----|
C#|-2------4----4-----9-----|-9----9----9-----9----9----9----9----|-2------4----4-----9-----|
G#|-0------2----2-----7-----|-7----7----7-----7----7----7----7----|-0------2----2-----7-----|
D#|-------------------0-----|-0----0----0-----0----0----0----0----|-------------------0-----|

D#|-------------------------------------|-----------------------------------------|
A#|-9----9----9-----9----9----9----9----|-----------------------------------------|
F#|-9----9----9-----9----9----9----9----|------4---------4---------4----4---------|
C#|-9----9----9-----9----9----9----9----|------2----4----4---------4----2----4----|
G#|-7----7----7-----7----7----7----7----|-2----2--------------2----2--------------|
D#|-0----0----0-----0----0----0----0----|-----------------------------------------|

D#|-----------------------------------------|-----------------------------------------|
A#|-----------------------------------------|-----------------------------------------|
F#|-4----4----4----4----4---------4----4----|------4---------4---------4----4---------|
C#|-4----4----4----4----2----4----4----4----|------2----4----4---------4----2----4----|
G#|-2---------------------------------------|-2----2--------------2----2--------------|
D#|-----------------------------------------|-----------------------------------------|

D#|-----------------------------------------|-----------------------------------------|
A#|-----------------------------------------|-----------------------------------------|
F#|-4----4----4----4----4---------4----4----|------4---------4---------4----4---------|
C#|-4----4----4----4----2----4----4----4----|------2----4----4---------4----2----4----|
G#|-2---------------------------------------|-2----2----2---------2----2----2---------|
D#|-----------------------------------------|-----------------------------------------|

D#|-----------------------------------------|---------------------------------|---------------------------------|
A#|-----------------------------------------|---------------------------------|---------------------------------|
F#|-4----4----4----4----4---------5----7----|-7-----7-----7----4----5----7----|-7-----7-----7----4----5----7----|
C#|-4----4----4----4----2----4----5----7----|-7-----7-----7----4----5----7----|-7-----7-----7----4----5----7----|
G#|-2----2----2----2--------------3----5----|-5-----5-----5----2----3----5----|-5-----5-----5----2----3----5----|
D#|-----------------------------------------|---------------------------------|---------------------------------|

D#|-----------------------------------------|-------------------------------------|
A#|-----------------------------------------|-------------------------------------|
F#|-7----4----5----7----7----4----5----7----|-7-----4----2----2----2----2----4----|
C#|-7----4----5----7----7----4----5----7----|-7-----4----2----2----2----2----4----|
G#|-5----2----3----5----5----2----3----5----|-5-----2----0----0----0----0----2----|
D#|-----------------------------------------|-------------------------------------|

D#|-----------------------------------------|-----------------------------------------|
A#|-----------------------------------------|-----------------------------------------|
F#|------4---------4---------4----4---------|-4----4----4----4----4---------4----4----|
C#|------2----4----4---------4----2----4----|-4----4----4----4----2----4----4----4----|
G#|-2----2--------------2----2--------------|-2---------------------------------------|
D#|-----------------------------------------|-----------------------------------------|

D#|-----------------------------------------|-----------------------------------------|
A#|-----------------------------------------|-----------------------------------------|
F#|------4---------4---------4----4---------|-4----4----4----4----4---------4----4----|
C#|------2----4----4---------4----2----4----|-4----4----4----4----2----4----4----4----|
G#|-2----2--------------2----2--------------|-2---------------------------------------|
D#|-----------------------------------------|-----------------------------------------|

D#|-----------------------------------------|-----------------------------------------|
A#|-----------------------------------------|-----------------------------------------|
F#|------4---------4---------4----4---------|-4----4----4----4----4---------4----4----|
C#|------2----4----4---------4----2----4----|-4----4----4----4----2----4----4----4----|
G#|-2----2--------------2----2--------------|-2---------------------------------------|
D#|-----------------------------------------|-----------------------------------------|

D#|-----------------------------------------|-------------------------------------|
A#|-----------------------------------------|-------------------------------------|
F#|------4---------4---------4----4---------|-7----7----7-----7----4---6----7-----|
C#|------2----4----4---------4----2----4----|-7----7----7-----7----4---6----7-----|
G#|-2----2--------------2----2--------------|-5----5----5-----5----2---4----5-----|
D#|-----------------------------------------|-------------------------------------|

D#|---------------------------------|---------------------------------|-----------------------------|
A#|---------------------------------|---------------------------------|-----------------------------|
F#|-7-----7-----7----4----6----7----|-7---------------------6----7----|-7-----7-----7----7----------|
C#|-7-----7-----7----4----6----7----|-7-----6----7----7-----6----7----|-7-----7-----7----7----2-----|
G#|-5-----5-----5----2----4----5----|-5-----6----7----7-----4----5----|-5-----5-----5----5----2-----|
D#|---------------------------------|-------4----5----5---------------|-----------------------0-----|

D#|------------------------------|------------------------------|---------------------------------|
A#|------------------------------|------------------------------|---------------------------------|
F#|-------------------7----------|-------------------7----------|-------2----4----4-----7---------|
C#|-2-----2-----2-----7-----2----|-2-----2-----2-----7-----2----|-2-----2----4----4-----7----2----|
G#|-2-----2-----2-----5-----2----|-2-----2-----2-----5-----2----|-2-----0----2----2-----5----2----|
D#|-0-----0-----0-----------0----|-0-----0-----0-----------0----|-0--------------------------0----|

D#|-----------------------------|---------------------------------|---------------------------------|
A#|-----------------------------|---------------------------------|---------------------------------|
F#|-------------------6----7----|-7-----7-----7----4----6----7----|-7-----7-----7----4----6----7----|
C#|-2-----2-----2-----6----7----|-7-----7-----7----4----6----7----|-7-----7-----7----4----6----7----|
G#|-2-----2-----2-----4----5----|-5-----5-----5----2----4----5----|-5-----5-----5----2----4----5----|
D#|-0-----0-----0---------------|---------------------------------|---------------------------------|

D#|---------------------------------|-----------------------------|-----------------------------------------|
A#|---------------------------------|-----------------------------|-----------------------------------------|
F#|-7-----7-----7----4----6----7----|-7----7----7----7-----7------|------4---------4---------4----4---------|
C#|-7-----7-----7----4----6----7----|-7----7----7----7-----7------|------2----4----4---------4----2----4----|
G#|-5-----5-----5----2----4----5----|-5----5----5----5-----5------|-2----2--------------2----2--------------|
D#|---------------------------------|-----------------------------|-----------------------------------------|

D#|-----------------------------------------|-----------------------------------------|
A#|-----------------------------------------|-----------------------------------------|
F#|-4----4----4----4----4---------4----4----|------4---------4---------4----4---------|
C#|-4----4----4----4----2----4----4----4----|------2----4----4---------4----2----4----|
G#|-2---------------------------------------|-2----2--------------2----2--------------|
D#|-----------------------------------------|-----------------------------------------|

D#|-----------------------------------------|-----------------------------------------|
A#|-----------------------------------------|-----------------------------------------|
F#|-4----4----4----4----4---------4----4----|------4---------4---------4----4---------|
C#|-4----4----4----4----2----4----4----4----|------2----4----4---------4----2----4----|
G#|-2---------------------------------------|-2----2--------------2----2--------------|
D#|-----------------------------------------|-----------------------------------------|

D#|-----------------------------------------|-----------------------------------------|
A#|-----------------------------------------|-----------------------------------------|
F#|-4----4----4----4----4---------4----4----|------4---------4---------4----4---------|
C#|-4----4----4----4----2----4----4----4----|------2----4----4---------4----2----4----|
G#|-2---------------------------------------|-2----2--------------2----2--------------|
D#|-----------------------------------------|-----------------------------------------|

D#|-----------------------------------------|-----------------------------------------|
A#|-----------------------------------------|-----------------------------------------|
F#|-4----4----4----4----4---------4----4----|------4---------4---------4----4----4----|
C#|-4----4----4----4----2----4----4----4----|------2----4----4---------4----2----4----|
G#|-2---------------------------------------|-2----2--------------2----2---------2----|
D#|-----------------------------------------|-----------------------------------------|

D#|---------|-------------------------|-------------------------|-----------------------------------------|
A#|---------|-------------------------|-------------------------|-----------------------------------------|
F#|-4-------|-4------4----4-----4-----|-4----4------4-----4-----|-4--------------4--------------4---------|
C#|-4-------|-4------4----4-----4-----|-4----4------4-----4-----|-2----2----2----2----2----2----2----2----|
G#|-2-------|-2------2----2-----2-----|-2----2------2-----2-----|-----------------------------------------|
D#|---------|-------------------------|-------------------------|-----------------------------------------|

D#|-----------------------------------------|-----------------------------------------|
A#|------2----------------------------------|-----------------------------------------|
F#|---------------------4-------------------|-4--------------4--------------4---------|
C#|-2----2----2----2----2----2----2----2----|-2----2----2----2----2----2----2----2----|
G#|-----------------------------------------|-----------------------------------------|
D#|-----------------------------------------|-----------------------------------------|

D#|-----------------------------------------|-----------------------------------------|
A#|------2----------------------------------|-----------------------------------------|
F#|---------------------4-------------------|------4---------4---------4----4---------|
C#|-2----2----2----2----2----2----2----2----|------2----4----4---------4----2----4----|
G#|-----------------------------------------|-2----2--------------2----2--------------|
D#|-----------------------------------------|-----------------------------------------|

D#|-----------------------------------------|-----------------------------------------|
A#|-----------------------------------------|-----------------------------------------|
F#|-4----4----4----4----4---------4----4----|------4---------4---------4----4---------|
C#|-4----4----4----4----2----4----4----4----|------2----4----4---------4----2----4----|
G#|-2---------------------------------------|-2----2--------------2----2--------------|
D#|-----------------------------------------|-----------------------------------------|

D#|-----------------------------------------|-----------------------------------------|
A#|-----------------------------------------|-----------------------------------------|
F#|-4----4----4----4----4---------4----4----|-4--------------4--------------4---------|
C#|-4----4----4----4----2----4----4----4----|-2----2----2----2----2----2----2----2----|
G#|-2---------------------------------------|-----------------------------------------|
D#|-----------------------------------------|-----------------------------------------|

D#|-----------------------------------------|-----------------------------------------|
A#|------2----------------------------------|-----------------------------------------|
F#|---------------------4-------------------|-4--------------4--------------4---------|
C#|-2----2----2----2----2----2----2----2----|-2----2----2----2----2----2----2----2----|
G#|-----------------------------------------|-----------------------------------------|
D#|-----------------------------------------|-----------------------------------------|

D#|-----------------------------------------|-----------------------------------------|
A#|------2----------------------------------|-----------------------------------------|
F#|---------------------4-------------------|------4---------4---------4----4---------|
C#|-2----2----2----2----2----2----2----2----|------2----4----4---------4----2----4----|
G#|-----------------------------------------|-2----2--------------2----2--------------|
D#|-----------------------------------------|-----------------------------------------|

D#|-----------------------------------------|-0-----------------------|-------------------------------------|
A#|-----------------------------------------|--------4----4-----9-----|-9----9----9-----9----9----9----9----|
F#|-4----4----4----4----4---------4----4----|-2------4----4-----9-----|-9----9----9-----9----9----9----9----|
C#|-4----4----4----4----2----4----4----4----|-2------4----4-----9-----|-9----9----9-----9----9----9----9----|
G#|-2---------------------------------------|-0------2----2-----7-----|-7----7----7-----7----7----7----7----|
D#|-----------------------------------------|-------------------0-----|-0----0----0-----0----0----0----0----|

D#|-0-----------------------|-------------------------------------|-----------------------------------------|
A#|--------5----5-----9-----|-9----9----9-----9----9----9----9----|-----------------------------------------|
F#|-2------4----4-----9-----|-9----9----9-----9----9----9----9----|------4---------4---------4----4---------|
C#|-2------4----4-----9-----|-9----9----9-----9----9----9----9----|------2----4----4---------4----2----4----|
G#|-0------2----2-----7-----|-7----7----7-----7----7----7----7----|-2----2----2---------2----2----2---------|
D#|-------------------0-----|-0----0----0-----0----0----0----0----|-----------------------------------------|

D#|-----------------------------------------|---------------------------------|---------------------------------|
A#|-----------------------------------------|---------------------------------|---------------------------------|
F#|-4----4----4----4----4---------5----7----|-7-----7-----7----4----5----7----|-7-----7-----7----4----5----7----|
C#|-4----4----4----4----2----4----5----7----|-7-----7-----7----4----5----7----|-7-----7-----7----4----5----7----|
G#|-2----2----2----2--------------3----5----|-5-----5-----5----2----3----5----|-5-----5-----5----2----3----5----|
D#|-----------------------------------------|---------------------------------|---------------------------------|

D#|-----------------------------------------|-------------------------------------|
A#|-----------------------------------------|-------------------------------------|
F#|-7----4----5----7----7----4----5----7----|-7-----4----2----2----2----2----4----|
C#|-7----4----5----7----7----4----5----7----|-7-----4----2----2----2----2----4----|
G#|-5----2----3----5----5----2----3----5----|-5-----2----0----0----0----0----2----|
D#|-----------------------------------------|-------------------------------------|

D#|-----------------------------------------|-----------------------------------------|
A#|-----------------------------------------|-----------------------------------------|
F#|------4---------4---------4----4---------|-4----4----4----4----4---------4----4----|
C#|------2----4----4---------4----2----4----|-4----4----4----4----2----4----4----4----|
G#|-2----2--------------2----2--------------|-2---------------------------------------|
D#|-----------------------------------------|-----------------------------------------|

D#|-----------------------------------------|-----------------------------------------|
A#|-----------------------------------------|-----------------------------------------|
F#|------4---------4---------4----4---------|-4----4----4----4----4---------4----4----|
C#|------2----4----4---------4----2----4----|-4----4----4----4----2----4----4----4----|
G#|-2----2--------------2----2--------------|-2---------------------------------------|
D#|-----------------------------------------|-----------------------------------------|

D#|-----------------------------|----------------------------|---------|---------|---------|
A#|-----------------------------|----------------------------|---------|---------|---------|
F#|-4----------4-----4----4-----|-4---------4----4----4------|-4-------|-4-------|-4-------|
C#|-4----------4-----4----4-----|-4---------4----4----4------|-4-------|-4-------|-4-------|
G#|-2-----2----2-----2----2-----|-2----2----2----2----2------|-2-------|-2-------|-2-------|
D#|-----------------------------|----------------------------|---------|---------|---------|

D#|---------|
A#|---------|
F#|-%-------|
C#|-%-------|
G#|---------|
D#|---------|
AC-DC - Heatseeker
AC-DC - Heatseeker.gp4