AC-DC - Inject The Venom

AC-DC



Title: Inject the venom 
Album: For those about to rock (we salute you)
Artist: AC/DC
Author: Brian Johnson - Angus & Malcolm Young

Track 1: Guitar
E|------------------------------------|---------|------------------------------------|
B|------------------------------------|---------|------------------------------------|
G|------0----2------2-----------%-----|-%-------|------0----2------2-----------%-----|
D|-2----0----2------2-------2---%-----|-%-------|-2----0----2------2-------2---%-----|
A|-2---------0------0-------2---------|---------|-2---------0------0-------2---------|
E|-0----3---------------3---0---------|---------|-0----3---------------3---0---------|

E|---------|------------------------------------|---------|------------------------------------|
B|---------|------------------------------------|---------|------------------------------------|
G|-%-------|------0----2------2-----------%-----|-%-------|------0----2------2-----------%-----|
D|-%-------|-2----0----2------2-------2---%-----|-%-------|-2----0----2------2-------2---%-----|
A|---------|-2---------0------0-------2---------|---------|-2---------0------0-------2---------|
E|---------|-0----3---------------3---0---------|---------|-0----3---------------3---0---------|

E|---------|------------------------------------|---------|------------------------------------|
B|---------|------------------------------------|---------|------------------------------------|
G|-%-------|------0----2------2-----------%-----|-%-------|------0----2------2-----------%-----|
D|-%-------|-2----0----2------2-------2---%-----|-%-------|-2----0----2------2-------2---%-----|
A|---------|-2---------0------0-------2---------|---------|-2---------0------0-------2---------|
E|---------|-0----3---------------3---0---------|---------|-0----3---------------3---0---------|

E|---------|----------------------------------------------|----------------------------------------------------|
B|---------|-----------3----3-------------3---------------|-----------------3----3---------3-------------------|
G|-%-------|-%----2----4----2-------------2---------------|---------2---2---4----2---------2-------------------|
D|-%-------|-%----2----5----4-----2---2---5---4---2---4---|-2---0---2---2---5----4-----2---2---5---4---2---4---|
A|---------|------0---------------------------------------|---------0---0--------------------------------------|
E|---------|----------------------------------------------|----------------------------------------------------|

E|----------------------------------------------------|----------------------------------------------------|
B|-----------------3----3---------3-------------------|-----------------3----3---------3-------------------|
G|---------2---2---4----2---------2-------------------|---------2---2---4----2---------2-------------------|
D|-2---0---2---2---5----4-----2---2---5---4---2---4---|-2---0---2---2---5----4-----2---2---5---4---2---4---|
A|---------0---0--------------------------------------|---------0---0--------------------------------------|
E|----------------------------------------------------|----------------------------------------------------|

E|-------------------------------------------------|-------------------------------------------------|
B|-4----4---4---5----5---------5-------------------|-4----4---4---5----5---------5-------------------|
G|-4----4---4---6----4---------4-------------------|-4----4---4---6----4---------4-------------------|
D|-4----4---4---7----6-----6---6---7---6---4---6---|-4----4---4---7----6-----6---6---7---6---4---6---|
A|-------------------------------------------------|-------------------------------------------------|
E|-------------------------------------------------|-------------------------------------------------|

E|-------------------------------------------------|-------------------------------------------------|
B|-4----4---4---5----5---------5-------------------|-4----4---4---5----5---------5-------------------|
G|-4----4---4---6----4---------4-------------------|-4----4---4---6----4---------4-------------------|
D|-4----4---4---7----6-----6---6---7---6---4---6---|-4----4---4---7----6-----6---6---7---6---4---6---|
A|-------------------------------------------------|-------------------------------------------------|
E|-------------------------------------------------|-------------------------------------------------|

E|---------------------------------------|---------|------------------------------------|
B|---------------------------------------|---------|------------------------------------|
G|-%---------0----2------2-----------%---|-%-------|------0----2------2-----------%-----|
D|-%----2----0----2------2-------2---%---|-%-------|-2----0----2------2-------2---%-----|
A|------2---------0------0-------2-------|---------|-2---------0------0-------2---------|
E|------0----3---------------3---0-------|---------|-0----3---------------3---0---------|

E|---------|------------------------------------|---------|------------------------------------|
B|---------|------------------------------------|---------|------------------------------------|
G|-%-------|------0----2------2-----------%-----|-%-------|------0----2------2-----------%-----|
D|-%-------|-2----0----2------2-------2---%-----|-%-------|-2----0----2------2-------2---%-----|
A|---------|-2---------0------0-------2---------|---------|-2---------0------0-------2---------|
E|---------|-0----3---------------3---0---------|---------|-0----3---------------3---0---------|

E|---------|----------------------------------------------|----------------------------------------------------|
B|---------|-----------3----3-------------3---------------|-----------------3----3---------3-------------------|
G|-%-------|-%----2----4----2-------------2---------------|---------2---2---4----2---------2-------------------|
D|-%-------|-%----2----5----4-----2---2---5---4---2---4---|-2---0---2---2---5----4-----2---2---5---4---2---4---|
A|---------|------0---------------------------------------|---------0---0--------------------------------------|
E|---------|----------------------------------------------|----------------------------------------------------|

E|----------------------------------------------------|----------------------------------------------------|
B|-----------------3----3---------3-------------------|-----------------3----3---------3-------------------|
G|---------2---2---4----2---------2-------------------|---------2---2---4----2---------2-------------------|
D|-2---0---2---2---5----4-----2---2---5---4---2---4---|-2---0---2---2---5----4-----2---2---5---4---2---4---|
A|---------0---0--------------------------------------|---------0---0--------------------------------------|
E|----------------------------------------------------|----------------------------------------------------|

E|-------------------------------------------------|-------------------------------------------------|
B|-4----4---4---5----5---------5-------------------|-4----4---4---5----5---------5-------------------|
G|-4----4---4---6----4---------4-------------------|-4----4---4---6----4---------4-------------------|
D|-4----4---4---7----6-----6---6---7---6---4---6---|-4----4---4---7----6-----6---6---7---6---4---6---|
A|-------------------------------------------------|-------------------------------------------------|
E|-------------------------------------------------|-------------------------------------------------|

E|-------------------------------------------------|-------------------------------------------------|
B|-4----4---4---5----5---------5-------------------|-4----4---4---5----5---------5-------------------|
G|-4----4---4---6----4---------4-------------------|-4----4---4---6----4---------4-------------------|
D|-4----4---4---7----6-----6---6---7---6---4---6---|-4----4---4---7----6-----6---6---7---6---4---6---|
A|-------------------------------------------------|-------------------------------------------------|
E|-------------------------------------------------|-------------------------------------------------|

E|-------------------------------------|-------------------------------------------------|
B|-------------------------------------|-------------------------------------------------|
G|-------------------------------------|-------------------------------------------------|
D|-2----5----6----7----------5----6----|-------------------------------------------------|
A|-2----5----6----7----------4----5----|-5---5---5---4---2-------2------------------2----|
E|-0----3----4----5-----0--------------|---------------------3---0-----0---0---3----0----|

E|-------------------------------------|-------------------------------------------------|
B|-------------------------------------|-------------------------------------------------|
G|-------------------------------------|-------------------------------------------------|
D|-2----5----6----7----------5----6----|-------------------------------------------------|
A|-2----5----6----7----------4----5----|-5---5---5---4---2-------2------------------2----|
E|-0----3----4----5-----0--------------|---------------------3---0-----0---0---3----0----|

E|-------------------------------------|-------------------------------------------------|
B|-------------------------------------|-------------------------------------------------|
G|-------------------------------------|-------------------------------------------------|
D|-2----5----6----7----------5----6----|-------------------------------------------------|
A|-2----5----6----7----------4----5----|-5---5---5---4---2-------2------------------2----|
E|-0----3----4----5-----0--------------|---------------------3---0-----0---0---3----0----|

E|-------------------------------------|--------------------------------------|---------------------------------------|
B|-------------------------------------|--------------------------------------|---------------------------------------|
G|-------------------------------------|--------------------------------------|-%---------0----2------2-----------%---|
D|-2----5----6----7----------5----6----|--------------------------------------|-%----2----0----2------2-------2---%---|
A|-2----5----6----7----------4----5----|-5---5---5---4---2-------2------------|------2---------0------0-------2-------|
E|-0----3----4----5-----0--------------|---------------------3---0-----0------|------0----3---------------3---0-------|

E|---------|------------------------------------|---------|------------------------------------|
B|---------|------------------------------------|---------|------------------------------------|
G|-%-------|------0----2------2-----------%-----|-%-------|------0----2------2-----------%-----|
D|-%-------|-2----0----2------2-------2---%-----|-%-------|-2----0----2------2-------2---%-----|
A|---------|-2---------0------0-------2---------|---------|-2---------0------0-------2---------|
E|---------|-0----3---------------3---0---------|---------|-0----3---------------3---0---------|

E|---------|------------------------------------|---------|----------------------------------------------|
B|---------|------------------------------------|---------|-----------3----3-------------3---------------|
G|-%-------|------0----2------2-----------%-----|-%-------|-%----2----4----2-------------2---------------|
D|-%-------|-2----0----2------2-------2---%-----|-%-------|-%----2----5----4-----2---2---5---4---2---4---|
A|---------|-2---------0------0-------2---------|---------|------0---------------------------------------|
E|---------|-0----3---------------3---0---------|---------|----------------------------------------------|

E|----------------------------------------------------|----------------------------------------------------|
B|-----------------3----3---------3-------------------|-----------------3----3---------3-------------------|
G|---------2---2---4----2---------2-------------------|---------2---2---4----2---------2-------------------|
D|-2---0---2---2---5----4-----2---2---5---4---2---4---|-2---0---2---2---5----4-----2---2---5---4---2---4---|
A|---------0---0--------------------------------------|---------0---0--------------------------------------|
E|----------------------------------------------------|----------------------------------------------------|

E|----------------------------------------------------|-------------------------------------------------|
B|-----------------3----3---------3-------------------|-4----4---4---5----5---------5-------------------|
G|---------2---2---4----2---------2-------------------|-4----4---4---6----4---------4-------------------|
D|-2---0---2---2---5----4-----2---2---5---4---2---4---|-4----4---4---7----6-----6---6---7---6---4---6---|
A|---------0---0--------------------------------------|-------------------------------------------------|
E|----------------------------------------------------|-------------------------------------------------|

E|-------------------------------------------------|-------------------------------------------------|
B|-4----4---4---5----5---------5-------------------|-4----4---4---5----5---------5-------------------|
G|-4----4---4---6----4---------4-------------------|-4----4---4---6----4---------4-------------------|
D|-4----4---4---7----6-----6---6---7---6---4---6---|-4----4---4---7----6-----6---6---7---6---4---6---|
A|-------------------------------------------------|-------------------------------------------------|
E|-------------------------------------------------|-------------------------------------------------|

E|-------------------------------------------------|-------------------------------------|
B|-4----4---4---5----5---------5-------------------|-------------------------------------|
G|-4----4---4---6----4---------4-------------------|-------------------------------------|
D|-4----4---4---7----6-----6---6---7---6---4---6---|-2----5----6----7----------5----6----|
A|-------------------------------------------------|-2----5----6----7----------4----5----|
E|-------------------------------------------------|-0----3----4----5-----0--------------|

E|-------------------------------------------------|-------------------------------------|
B|-------------------------------------------------|-------------------------------------|
G|-------------------------------------------------|-------------------------------------|
D|-------------------------------------------------|-2----5----6----7----------5----6----|
A|-5---5---5---4---2-------2------------------2----|-2----5----6----7----------4----5----|
E|---------------------3---0-----0---0---3----0----|-0----3----4----5-----0--------------|

E|-------------------------------------------------|-------------------------------------|
B|-------------------------------------------------|-------------------------------------|
G|-------------------------------------------------|------5----6----7----------5----6----|
D|-------------------------------------------------|------4----5----7----------4----5----|
A|-5---5---5---4---2-------2------------------2----|-0--------------0-----0--------------|
E|---------------------3---0-----0---0---3----0----|-------------------------------------|

E|-------------------------------------|-------------------------------------|-------------------------------------|
B|-------------------------------------|-------------------------------------|-------------------------------------|
G|------5----6----7----------5----6----|------5----6----7----------5----6----|------5----6----7----------5----6----|
D|------4----5----7----------4----5----|------4----5----7----------4----5----|------4----5----7----------4----5----|
A|-0--------------0-----0--------------|-0--------------0-----0--------------|-0--------------0-----0--------------|
E|-------------------------------------|-------------------------------------|-------------------------------------|

E|-------------------------------------|-------------------------------------------------|
B|-------------------------------------|-------------------------------------------------|
G|-------------------------------------|-------------------------------------------------|
D|-2----5----6----7----------5----6----|-------------------------------------------------|
A|-2----5----6----7----------4----5----|-5---5---5---4---2-------2------------------2----|
E|-0----3----4----5-----0--------------|---------------------3---0-----0---0---3----0----|

E|-------------------------------------|-------------------------------------------------|
B|-------------------------------------|-------------------------------------------------|
G|-------------------------------------|-------------------------------------------------|
D|-2----5----6----7----------5----6----|-------------------------------------------------|
A|-2----5----6----7----------4----5----|-5---5---5---4---2-------2------------------2----|
E|-0----3----4----5-----0--------------|---------------------3---0-----0---0---3----0----|

E|-------------------------------------|-------------------------------------------------|
B|-------------------------------------|-------------------------------------------------|
G|-------------------------------------|-------------------------------------------------|
D|-2----5----6----7----------5----6----|-------------------------------------------------|
A|-2----5----6----7----------4----5----|-5---5---5---4---2-------2------------------2----|
E|-0----3----4----5-----0--------------|---------------------3---0-----0---0---3----0----|

E|-------------------------------------|--------------------------------------|---------|
B|-------------------------------------|--------------------------------------|---------|
G|-------------------------------------|--------------------------------------|-%-------|
D|-2----5----6----7----------5----6----|--------------------------------------|-%-------|
A|-2----5----6----7----------4----5----|-5---5---5---4---2-------2-----2------|---------|
E|-0----3----4----5-----0--------------|---------------------3---0-----0------|---------|

E|----------------------------------------|
B|----------------------------------------|
G|-----------------------------%------%---|
D|-----------------------------%------%---|
A|-5---5---5---4---2-------2--------------|
E|---------------------3---0--------------|
AC-DC - Inject The Venom
AC-DC - Inject The Venom.gp4