AC-DC - Jailbreak (2)

AC-DC



Title: Jailbreak
Album: '74 Jailbreak
Artist: AC/DC
Author: 

Track 1: Rhythm Guitar
E|-------------------|-----------------------------------------|-----------------------------------------|
B|-------------------|---------------------3-------------------|---------------------3-------------------|
G|-%-----------------|-----------%---------2----%----2---------|-----------%---------2----%----2---------|
D|-%------------2----|-2----2----%---------0----%----2----2----|-2----2----%---------0----%----2----2----|
A|---------0----2----|-2----2------------------------0----2----|-2----2------------------------0----2----|
E|--------------0----|----------------0-------------------0----|----------------0-------------------0----|

E|-----------------------------------------|-----------------------------------------|
B|---------------------3-------------------|---------------------3-------------------|
G|-----------%---------2----%----2---------|-----------%---------2----%----2---------|
D|-2----2----%---------0----%----2----2----|-2----2----%---------0----%----2----2----|
A|-2----2------------------------0----2----|-2----2------------------------0----2----|
E|----------------0-------------------0----|----------------0-------------------0----|

E|-----------------------------------------|-----------------------------------------|
B|---------------------3-------------------|---------------------3-------------------|
G|-----------%---------2----%----2---------|-----------%---------2----%----2---------|
D|-2----2----%---------0----%----2----2----|-2----2----%---------0----%----2----2----|
A|-2----2------------------------0----2----|-2----2------------------------0----2----|
E|----------------0-------------------0----|----------------0-------------------0----|

E|-----------------------------------------|-----------------------------------------|
B|---------------------3-------------------|---------------------3-------------------|
G|-----------%---------2----%----2---------|-----------%---------2----%----2---------|
D|-2----2----%---------0----%----2----2----|-2----2----%---------0----%----2----2----|
A|-2----2------------------------0----2----|-2----2------------------------0----2----|
E|----------------0-------------------0----|----------------0-------------------0----|

E|-----------------------------------------|-----------------------------------------|
B|---------------------3-------------------|---------------------3-------------------|
G|-----------%---------2----%----2---------|-----------%---------2----%----2---------|
D|-2----2----%---------0----%----2----2----|-2----2----%---------0----%----2----2----|
A|-2----2------------------------0----2----|-2----2------------------------0----2----|
E|----------------0-------------------0----|----------------0-------------------0----|

E|---------|-------------------|-----------------------------------------|-----------------------------------------|
B|---------|-------------------|---------------------3-------------------|---------------------3-------------------|
G|-%-------|-%-------%---------|-----------%---------2----%----2---------|-----------%---------2----%----2---------|
D|-%-------|-%-------%----2----|-2----2----%---------0----%----2----2----|-2----2----%---------0----%----2----2----|
A|---------|--------------2----|-2----2------------------------0----2----|-2----2------------------------0----2----|
E|---------|--------------0----|----------------0-------------------0----|----------------0-------------------0----|

E|-----------------------------------------|-----------------------------------------|
B|---------------------3-------------------|---------------------3-------------------|
G|-----------%---------2----%----2---------|-----------%---------2----%----2---------|
D|-2----2----%---------0----%----2----2----|-2----2----%---------0----%----2----2----|
A|-2----2------------------------0----2----|-2----2------------------------0----2----|
E|----------------0-------------------0----|----------------0-------------------0----|

E|-----------------------------------------|-----------------------------------------|
B|---------------------3-------------------|---------------------3-------------------|
G|-----------%---------2----%----2---------|-----------%---------2----%----2---------|
D|-2----2----%---------0----%----2----2----|-2----2----%---------0----%----2----2----|
A|-2----2------------------------0----2----|-2----2------------------------0----2----|
E|----------------0-------------------0----|----------------0-------------------0----|

E|-----------------------------------------|-----------------------------------------|
B|---------------------3-------------------|---------------------3-------------------|
G|-----------%---------2----%----2---------|-----------%---------2----%----2---------|
D|-2----2----%---------0----%----2----2----|-2----2----%---------0----%----2----2----|
A|-2----2------------------------0----2----|-2----2------------------------0----2----|
E|----------------0-------------------0----|----------------0-------------------0----|

E|-----------------------------------------|-----------------------------------------|
B|---------------------3-------------------|---------------------3-------------------|
G|-----------%---------2----%----2---------|-----------%---------2----%----2---------|
D|-2----2----%---------0----%----2----2----|-2----2----%---------0----%----2----2----|
A|-2----2------------------------0----2----|-2----2------------------------0----2----|
E|----------------0-------------------0----|----------------0-------------------0----|

E|-----------------------------------------|-----------------------------------------|
B|---------------------3-------------------|---------------------3-------------------|
G|-----------%---------2----%----2---------|-----------%---------2----%----2---------|
D|-2----2----%---------0----%----2----2----|-2----2----%---------0----%----2----2----|
A|-2----2------------------------0----2----|-2----2------------------------0----2----|
E|----------------0-------------------0----|----------------0-------------------0----|

E|-----------------------------------------|-----------------------------------------|
B|---------------------3-------------------|---------------------3-------------------|
G|-----------%---------2----%----2---------|-----------%---------2----%----2---------|
D|-2----2----%---------0----%----2----2----|-2----2----%---------0----%----2----2----|
A|-2----2------------------------0----2----|-2----2------------------------0----2----|
E|----------------0-------------------0----|----------------0-------------------0----|

E|-----------------------------------------|-----------------------------------------|
B|---------------------3-------------------|---------------------3-------------------|
G|-----------%---------2----%----2---------|-----------%---------2----%----2----%----|
D|-2----2----%---------0----%----2----2----|-2----2----%---------0----%----2----%----|
A|-2----2------------------------0----2----|-2----2------------------------0---------|
E|----------------0-------------------0----|----------------0------------------------|

E|---------|-----------------------------|---------|-----------------------------|---------|
B|---------|------3-----3-----3-----3----|---------|------3-----3-----3-----3----|---------|
G|-2-------|-2----2-----2-----2-----2----|-2-------|-2----2-----2-----2-----2----|-4-------|
D|-2-------|-2---------------------------|-2-------|-2---------------------------|-4-------|
A|-0-------|-0---------------------------|-0-------|-0---------------------------|-2-------|
E|---------|-----------------------------|---------|-----------------------------|---------|

E|-----------------------------|---------|-----------------------------|-------------------------------------|
B|-----------------------------|---------|------3-----3-----3-----3----|-----------------3-------------------|
G|-4---------------------------|-4-------|-4----2-----2-----2-----2----|-----------------2----%----2---------|
D|-4----2-----2-----2-----2----|-4-------|-4---------------------------|-2-----2---------0----%----2----2----|
A|-2----2-----2-----2-----2----|-2-------|-2---------------------------|-2-----2-------------------0----2----|
E|------0-----0-----0-----0----|---------|-----------------------------|------------0-------------------0----|

E|-----------------------------------------|-----------------------------------------|
B|---------------------3-------------------|---------------------3-------------------|
G|-----------%---------2----%----2---------|-----------%---------2----%----2---------|
D|-2----2----%---------0----%----2----2----|-2----2----%---------0----%----2----2----|
A|-2----2------------------------0----2----|-2----2------------------------0----2----|
E|----------------0-------------------0----|----------------0-------------------0----|

E|-----------------------------------------|-----------------------------------------|
B|---------------------3-------------------|---------------------3-------------------|
G|-----------%---------2----%----2---------|-----------%---------2----%----2---------|
D|-2----2----%---------0----%----2----2----|-2----2----%---------0----%----2----2----|
A|-2----2------------------------0----2----|-2----2------------------------0----2----|
E|----------------0-------------------0----|----------------0-------------------0----|

E|-----------------------------------------|-----------------------------------------|
B|---------------------3-------------------|---------------------3-------------------|
G|-----------%---------2----%----2---------|-----------%---------2----%----2---------|
D|-2----2----%---------0----%----2----2----|-2----2----%---------0----%----2----2----|
A|-2----2------------------------0----2----|-2----2------------------------0----2----|
E|----------------0-------------------0----|----------------0-------------------0----|

E|-----------------------------------------|-----------------------------------------|
B|---------------------3-------------------|---------------------3-------------------|
G|-----------%---------2----%----2---------|-----------%---------2----%----2---------|
D|-2----2----%---------0----%----2----2----|-2----2----%---------0----%----2----2----|
A|-2----2------------------------0----2----|-2----2------------------------0----2----|
E|----------------0-------------------0----|----------------0-------------------0----|

E|-----------------------------------------|-----------------------------------------|
B|---------------------3-------------------|---------------------3-------------------|
G|-----------%---------2----%----2---------|-----------%---------2----%----2---------|
D|-2----2----%---------0----%----2----2----|-2----2----%---------0----%----2----2----|
A|-2----2------------------------0----2----|-2----2------------------------0----2----|
E|----------------0-------------------0----|----------------0-------------------0----|

E|-----------------------------------------|-----------------------------------------|
B|---------------------3-------------------|---------------------3-------------------|
G|-----------%---------2----%----2---------|-----------%---------2----%----2---------|
D|-2----2----%---------0----%----2----2----|-2----2----%---------0----%----2----2----|
A|-2----2------------------------0----2----|-2----2------------------------0----2----|
E|----------------0-------------------0----|----------------0-------------------0----|

E|-----------------------------------------|-----------------------------------------|
B|---------------------3-------------------|---------------------3-------------------|
G|-----------%---------2----%----2---------|-----------%---------2----%----2---------|
D|-2----2----%---------0----%----2----2----|-2----2----%---------0----%----2----2----|
A|-2----2------------------------0----2----|-2----2------------------------0----2----|
E|----------------0-------------------0----|----------------0-------------------0----|

E|---------|-------------------|-----------------------------------------|-----------------------------------------|
B|---------|-------------------|---------------------3-------------------|---------------------3-------------------|
G|---------|---------%---------|-----------%---------2----%----2---------|-----------%---------2----%----2---------|
D|-2-------|-2-------%----2----|-2----2----%---------0----%----2----2----|-2----2----%---------0----%----2----2----|
A|-2-------|-2------------2----|-2----2------------------------0----2----|-2----2------------------------0----2----|
E|-0-------|-0------------0----|----------------0-------------------0----|----------------0-------------------0----|

E|-----------------------------------------|-----------------------------------------|
B|---------------------3-------------------|---------------------3-------------------|
G|-----------%---------2----%----2---------|-----------%---------2----%----2---------|
D|-2----2----%---------0----%----2----2----|-2----2----%---------0----%----2----2----|
A|-2----2------------------------0----2----|-2----2------------------------0----2----|
E|----------------0-------------------0----|----------------0-------------------0----|

E|-----------------------------------------|-----------------------------------------|
B|---------------------3-------------------|---------------------3-------------------|
G|-----------%---------2----%----2---------|-----------%---------2----%----2---------|
D|-2----2----%---------0----%----2----2----|-2----2----%---------0----%----2----2----|
A|-2----2------------------------0----2----|-2----2------------------------0----2----|
E|----------------0-------------------0----|----------------0-------------------0----|

E|-----------------------------------------|-----------------------------------------|
B|---------------------3-------------------|---------------------3-------------------|
G|-----------%---------2----%----2---------|-----------%---------2----%----2---------|
D|-2----2----%---------0----%----2----2----|-2----2----%---------0----%----2----2----|
A|-2----2------------------------0----2----|-2----2------------------------0----2----|
E|----------------0-------------------0----|----------------0-------------------0----|

E|-----------------------------------------|-----------------------------------------|
B|---------------------3-------------------|---------------------3-------------------|
G|-----------%---------2----%----2---------|-----------%---------2----%----2---------|
D|-2----2----%---------0----%----2----2----|-2----2----%---------0----%----2----2----|
A|-2----2------------------------0----2----|-2----2------------------------0----2----|
E|----------------0-------------------0----|----------------0-------------------0----|

E|-----------------------------------------|-----------------------------------------|
B|---------------------3-------------------|---------------------3-------------------|
G|-----------%---------2----%----2---------|-----------%---------2----%----2---------|
D|-2----2----%---------0----%----2----2----|-2----2----%---------0----%----2----2----|
A|-2----2------------------------0----2----|-2----2------------------------0----2----|
E|----------------0-------------------0----|----------------0-------------------0----|

E|-----------------------------------------|-----------------------------------------|
B|---------------------3-------------------|---------------------3-------------------|
G|-----------%---------2----%----2---------|-----------%---------2----%----2---------|
D|-2----2----%---------0----%----2----2----|-2----2----%---------0----%----2----2----|
A|-2----2------------------------0----2----|-2----2------------------------0----2----|
E|----------------0-------------------0----|----------------0-------------------0----|

E|-----------------------------------------|---------------------------------|---------|
B|---------------------3-------------------|---------------------3-----------|---------|
G|-----------%---------2----%----2---------|-----------%---------2-----------|---------|
D|-2----2----%---------0----%----2----2----|-2----2----%---------0-----------|-2-------|
A|-2----2------------------------0----2----|-2----2--------------------7-----|-0-------|
E|----------------0-------------------0----|----------------0----------5-----|---------|

E|-----------------------------|---------|-----------------------------|---------|-----------------------------|
B|------3-----3-----3-----3----|---------|------3-----3-----3-----3----|---------|-----------------------------|
G|------2-----2-----2-----2----|---------|-2----2-----2-----2-----2----|---------|-----------------------------|
D|-2---------------------------|-2-------|-2---------------------------|-4-------|-4---------------------------|
A|-0---------------------------|-0-------|-0---------------------------|-2-------|-2----2-----2-----2-----2----|
E|-----------------------------|---------|-----------------------------|---------|------0-----0-----0-----0----|

E|---------|-----------------------------|-------------------------------------|-----------------------------------------|
B|---------|------3-----3-----3-----3----|-----------------3-------------------|---------------------3-------------------|
G|---------|------2-----2-----2-----2----|-----------------2----%----2---------|-----------%---------2----%----2---------|
D|-4-------|-4---------------------------|-2-----2---------0----%----2----2----|-2----2----%---------0----%----2----2----|
A|-2-------|-2---------------------------|-2-----2-------------------0----2----|-2----2------------------------0----2----|
E|---------|-----------------------------|------------0-------------------0----|----------------0-------------------0----|

E|-----------------------------------------|-----------------------------------------|
B|---------------------3-------------------|---------------------3-------------------|
G|-----------%---------2----%----2---------|-----------%---------2----%----2---------|
D|-2----2----%---------0----%----2----2----|-2----2----%---------0----%----2----2----|
A|-2----2------------------------0----2----|-2----2------------------------0----2----|
E|----------------0-------------------0----|----------------0-------------------0----|

E|-----------------------------------------|-----------------------------------------|
B|---------------------3-------------------|---------------------3-------------------|
G|-----------%---------2----%----2---------|-----------%---------2----%----2---------|
D|-2----2----%---------0----%----2----2----|-2----2----%---------0----%----2----2----|
A|-2----2------------------------0----2----|-2----2------------------------0----2----|
E|----------------0-------------------0----|----------------0-------------------0----|

E|-----------------------------------------|-----------------------------------------|
B|---------------------3-------------------|---------------------3-------------------|
G|-----------%---------2----%----2---------|-----------%---------2----%----2---------|
D|-2----2----%---------0----%----2----2----|-2----2----%---------0----%----2----2----|
A|-2----2------------------------0----2----|-2----2------------------------0----2----|
E|----------------0-------------------0----|----------------0-------------------0----|

E|-----------------------------------------|-----------------------------------------|
B|---------------------3-------------------|---------------------3-------------------|
G|-----------%---------2----%----2---------|-----------%---------2----%----2---------|
D|-2----2----%---------0----%----2----2----|-2----2----%---------0----%----2----2----|
A|-2----2------------------------0----2----|-2----2------------------------0----2----|
E|----------------0-------------------0----|----------------0-------------------0----|

E|-----------------------------------------|-----------------------------------------|
B|---------------------3-------------------|---------------------3-------------------|
G|-----------%---------2----%----2---------|-----------%---------2----%----2---------|
D|-2----2----%---------0----%----2----2----|-2----2----%---------0----%----2----2----|
A|-2----2------------------------0----2----|-2----2------------------------0----2----|
E|----------------0-------------------0----|----------------0-------------------0----|

E|-----------------------------------------|-----------------------------------------|
B|---------------------3-------------------|---------------------3-------------------|
G|-----------%---------2----%----2---------|-----------%---------2----%----2---------|
D|-2----2----%---------0----%----2----2----|-2----2----%---------0----%----2----2----|
A|-2----2------------------------0----2----|-2----2------------------------0----2----|
E|----------------0-------------------0----|----------------0-------------------0----|

E|-----------------------------------------|-----------------------------------------|
B|---------------------3-------------------|---------------------3-------------------|
G|-----------%---------2----%----2---------|-----------%---------2----%----2---------|
D|-2----2----%---------0----%----2----2----|-2----2----%---------0----%----2----2----|
A|-2----2------------------------0----2----|-2----2------------------------0----2----|
E|----------------0-------------------0----|----------------0-------------------0----|

E|---------|-----------------------------|---------|-----------------------------|---------|
B|---------|------3-----3-----3-----3----|---------|------3-----3-----3-----3----|---------|
G|---------|------2-----2-----2-----2----|---------|-2----2-----2-----2-----2----|---------|
D|-2-------|-2---------------------------|-2-------|-2---------------------------|-4-------|
A|-0-------|-0---------------------------|-0-------|-0---------------------------|-2-------|
E|---------|-----------------------------|---------|-----------------------------|---------|

E|-----------------------------|---------|-----------------------------|---------|---------|
B|-----------------------------|---------|------3-----3-----3-----3----|---------|---------|
G|-----------------------------|---------|------2-----2-----2-----2----|-%-------|-%-------|
D|-4---------------------------|-4-------|-4---------------------------|-%-------|-%-------|
A|-2----2-----2-----2-----2----|-2-------|-2---------------------------|---------|---------|
E|------0-----0-----0-----0----|---------|-----------------------------|---------|---------|

E|---------|---------|-------------------|-----------------------------------------|
B|---------|---------|-------------------|---------------------3-------------------|
G|-%-------|-%-------|-%-------%---------|-----------%---------2----%----2---------|
D|-%-------|-%-------|-%-------%----2----|-2----2----%---------0----%----2----2----|
A|---------|---------|--------------2----|-2----2------------------------0----2----|
E|---------|---------|--------------0----|----------------0-------------------0----|

E|-----------------------------------------|-----------------------------------------|
B|---------------------3-------------------|---------------------3-------------------|
G|-----------%---------2----%----2---------|-----------%---------2----%----2---------|
D|-2----2----%---------0----%----2----2----|-2----2----%---------0----%----2----2----|
A|-2----2------------------------0----2----|-2----2------------------------0----2----|
E|----------------0-------------------0----|----------------0-------------------0----|

E|-----------------------------------------|-----------------------------------------|
B|---------------------3-------------------|---------------------3-------------------|
G|-----------%---------2----%----2---------|-----------%---------2----%----2---------|
D|-2----2----%---------0----%----2----2----|-2----2----%---------0----%----2----2----|
A|-2----2------------------------0----2----|-2----2------------------------0----2----|
E|----------------0-------------------0----|----------------0-------------------0----|

E|-----------------------------------------|-----------------------------------------|
B|---------------------3-------------------|---------------------3-------------------|
G|-----------%---------2----%----2---------|-----------%---------2----%----2---------|
D|-2----2----%---------0----%----2----2----|-2----2----%---------0----%----2----2----|
A|-2----2------------------------0----2----|-2----2------------------------0----2----|
E|----------------0-------------------0----|----------------0-------------------0----|

E|-----------------------------------------|-----------------------------------------|
B|---------------------3-------------------|---------------------3-------------------|
G|-----------%---------2----%----2---------|-----------%---------2----%----2---------|
D|-2----2----%---------0----%----2----2----|-2----2----%---------0----%----2----2----|
A|-2----2------------------------0----2----|-2----2------------------------0----2----|
E|----------------0-------------------0----|----------------0-------------------0----|

E|-----------------------------------------|-----------------------------------------|
B|---------------------3-------------------|---------------------3-------------------|
G|-----------%---------2----%----2---------|-----------%---------2----%----2---------|
D|-2----2----%---------0----%----2----2----|-2----2----%---------0----%----2----2----|
A|-2----2------------------------0----2----|-2----2------------------------0----2----|
E|----------------0-------------------0----|----------------0-------------------0----|

E|-----------------------------------------|-----------------------------------------|
B|---------------------3-------------------|---------------------3-------------------|
G|-----------%---------2----%----2---------|-----------%---------2----%----2---------|
D|-2----2----%---------0----%----2----2----|-2----2----%---------0----%----2----2----|
A|-2----2------------------------0----2----|-2----2------------------------0----2----|
E|----------------0-------------------0----|----------------0-------------------0----|

E|-----------------------------------------|-----------------------------------------|
B|---------------------3-------------------|---------------------3-------------------|
G|-----------%---------2----%----2---------|-----------%---------2----%----2---------|
D|-2----2----%---------0----%----2----2----|-2----2----%---------0----%----2----2----|
A|-2----2------------------------0----2----|-2----2------------------------0----2----|
E|----------------0-------------------0----|----------------0-------------------0----|

E|-----------------------------------------|-----------------------------------------|
B|---------------------3-------------------|---------------------3-------------------|
G|-----------%---------2----%----2---------|-----------%---------2----%----2---------|
D|-2----2----%---------0----%----2----2----|-2----2----%---------0----%----2----2----|
A|-2----2------------------------0----2----|-2----2------------------------0----2----|
E|----------------0-------------------0----|----------------0-------------------0----|
AC-DC - Jailbreak (2)
AC-DC - Jailbreak (2).gp4