AC-DC - Meanstreak

AC-DC - Meanstreak

AC-DC



Title: Meanstreak
Album: Blow up your video
Artist: AC/DC
Author: Brian Johnson - Angus Young - Malcolm Young

Track 1: Guitar 1
E|------------------------|-------------------------------------|------------------------|
B|-4------6-----------4---|-4---4----4----4----4----6-----------|-4------6-----------4---|
G|-5------5-----%-----5---|-5---5----5----5----5----5-----%-----|-5------5-----%-----5---|
D|--------------%---------|-------------------------------%-----|--------------%---------|
A|------------------------|-------------------------------------|------------------------|
E|------------------------|-------------------------------------|------------------------|

E|-------------------------------------|------------------------|-------------------------------------|
B|-4---4----4----4----4----6-----------|-4------6-----------4---|-4---4----4----4----4----6-----------|
G|-5---5----5----5----5----5-----%-----|-5------5-----%-----5---|-5---5----5----5----5----5-----%-----|
D|-------------------------------%-----|--------------%---------|-------------------------------%-----|
A|-------------------------------------|------------------------|-------------------------------------|
E|-------------------------------------|------------------------|-------------------------------------|

E|------------------------|-------------------------------------|---------|---------|
B|-4------6-----------4---|-4---4----4----4----4----6-----------|---------|---------|
G|-5------5-----%-----5---|-5---5----5----5----5----5-----%-----|-%-------|-%-------|
D|--------------%---------|-------------------------------%-----|-%-------|-%-------|
A|------------------------|-------------------------------------|---------|---------|
E|------------------------|-------------------------------------|---------|---------|

E|---------|---------|---------|---------|---------|---------|---------|---------|---------|
B|---------|---------|---------|---------|---------|---------|---------|---------|---------|
G|-%-------|-%-------|-%-------|-%-------|-%-------|-%-------|-%-------|-%-------|-%-------|
D|-%-------|-%-------|-%-------|-%-------|-%-------|-%-------|-%-------|-%-------|-%-------|
A|---------|---------|---------|---------|---------|---------|---------|---------|---------|
E|---------|---------|---------|---------|---------|---------|---------|---------|---------|

E|---------|---------|---------|---------|---------|---------|---------|---------|---------|
B|---------|---------|---------|---------|---------|---------|---------|---------|---------|
G|-%-------|-%-------|-%-------|-%-------|-%-------|-%-------|-%-------|-%-------|-%-------|
D|-%-------|-%-------|-%-------|-%-------|-%-------|-%-------|-%-------|-%-------|-%-------|
A|---------|---------|---------|---------|---------|---------|---------|---------|---------|
E|---------|---------|---------|---------|---------|---------|---------|---------|---------|

E|---------|---------|---------|---------|---------|---------|---------|---------|---------|
B|---------|---------|---------|---------|---------|---------|---------|---------|---------|
G|-%-------|-%-------|-%-------|-%-------|-%-------|-%-------|-%-------|-%-------|-%-------|
D|-%-------|-%-------|-%-------|-%-------|-%-------|-%-------|-%-------|-%-------|-%-------|
A|---------|---------|---------|---------|---------|---------|---------|---------|---------|
E|---------|---------|---------|---------|---------|---------|---------|---------|---------|

E|---------|---------|---------|---------------|---------|--------|---------------|
B|---------|---------|---------|---------------|---------|--------|---------------|
G|-%-------|-%-------|-%-------|---------------|---------|--------|-10-----8------|
D|-%-------|-%-------|-%-------|-8------8------|-8-------|-8------|-10-----8------|
A|---------|---------|---------|-8------8------|-8-------|-8------|-8------6------|
E|---------|---------|---------|-6------6------|-6-------|-6------|---------------|

E|---------------|---------|---------|---------------|---------------|---------|---------|
B|---------------|---------|---------|---------------|---------------|---------|---------|
G|---------------|---------|---------|-10-----8------|---------------|---------|---------|
D|-10-----8------|-8-------|-8-------|-10-----8------|-10-----8------|-8-------|-8-------|
A|-10-----8------|-8-------|-8-------|-8------6------|-10-----8------|-8-------|-8-------|
E|-8------6------|-6-------|-6-------|---------------|-8------6------|-6-------|-6-------|

E|---------------|---------------|---------|---------|--------|---------|------------------------|
B|---------------|---------------|---------|---------|--------|---------|-4------6-----------4---|
G|---------------|--------8------|-8-------|-6-------|-6------|-6-------|-5------5-----%-----5---|
D|-8------6------|-3------8------|-8-------|-6-------|-6------|-6-------|--------------%---------|
A|-8------6------|-3------6------|-6-------|-4-------|-4------|-4-------|------------------------|
E|-6------4------|-1-------------|---------|---------|--------|---------|------------------------|

E|-------------------------------------|------------------------|-------------------------------------|
B|-4---4----4----4----4----6-----------|-4------6-----------4---|-4---4----4----4----4----6-----------|
G|-5---5----5----5----5----5-----%-----|-5------5-----%-----5---|-5---5----5----5----5----5-----%-----|
D|-------------------------------%-----|--------------%---------|-------------------------------%-----|
A|-------------------------------------|------------------------|-------------------------------------|
E|-------------------------------------|------------------------|-------------------------------------|

E|------------------------|-------------------------------------|------------------------|
B|-4------6-----------4---|-4---4----4----4----4----6-----------|-4------6-----------4---|
G|-5------5-----%-----5---|-5---5----5----5----5----5-----%-----|-5------5-----%-----5---|
D|--------------%---------|-------------------------------%-----|--------------%---------|
A|------------------------|-------------------------------------|------------------------|
E|------------------------|-------------------------------------|------------------------|

E|-------------------------------------|------------------------|-------------------------------------|
B|-4---4----4----4----4----6-----------|-4------6-----------4---|-4---4----4----4----4----6-----------|
G|-5---5----5----5----5----5-----%-----|-5------5-----%-----5---|-5---5----5----5----5----5-----%-----|
D|-------------------------------%-----|--------------%---------|-------------------------------%-----|
A|-------------------------------------|------------------------|-------------------------------------|
E|-------------------------------------|------------------------|-------------------------------------|

E|------------------------|-------------------------------------|------------------------|
B|-4------6-----------4---|-4---4----4----4----4----6-----------|-4------6-----------4---|
G|-5------5-----%-----5---|-5---5----5----5----5----5-----%-----|-5------5-----%-----5---|
D|--------------%---------|-------------------------------%-----|--------------%---------|
A|------------------------|-------------------------------------|------------------------|
E|------------------------|-------------------------------------|------------------------|

E|-------------------------------------|------------------------|-------------------------------------|
B|-4---4----4----4----4----6-----------|-4------6-----------4---|-4---4----4----4----4----6-----------|
G|-5---5----5----5----5----5-----%-----|-5------5-----%-----5---|-5---5----5----5----5----5-----%-----|
D|-------------------------------%-----|--------------%---------|-------------------------------%-----|
A|-------------------------------------|------------------------|-------------------------------------|
E|-------------------------------------|------------------------|-------------------------------------|

E|---------|
B|---------|
G|-%-------|
D|-%-------|
A|---------|
E|---------|
AC-DC - Meanstreak
AC-DC - Meanstreak.gp4