AC-DC - Nervous Shakedown

AC-DC



Title: Nervous Shakedown
Album: Flick of The Switch
Artist: AC/DC
Author: Angus Young - Malcolm Young - Brian Johnson

Track 1: Guitar
E|--------------------|--------------------|--------------------|---------------------------|
B|--------------------|--------------------|--------------------|---------------------------|
G|-6-----4-----2------|--------------------|--------------------|---------------------------|
D|-4-----2-----0------|-5-----5-----2------|--------------------|---------------------------|
A|--------------------|-3-----2-----0------|-5-----5-----2------|-2------2-----2--------2---|
E|--------------------|--------------------|-3-----2-----0------|-0------0-----0----0---3---|

E|-------------------------------------------|-------------------------------------------------------|
B|-------------------------------------------|-------------------------3---3---3---------------------|
G|----------------------------%------2---2---|-2---%---0---0---0---%---2---2---2---%---2-------------|
D|-2----2----2---2-------2----%------2---2---|-2---%---0---0---0---%---0---0---0---%---2-------------|
A|-2----2----2---2---2---2-----------0---0---|-0-----------------------0---0---0-------0---------2---|
E|-0----0----0---0---3---0-------------------|---------3---3---3-----------------------------0---3---|

E|-------------------------------------------|-------------------------------------------------------|
B|-------------------------------------------|-------------------------3---3---3---------------------|
G|----------------------------%------2---2---|-2---%---0---0---0---%---2---2---2---%---2-------------|
D|-2----2----2---2-------2----%------2---2---|-2---%---0---0---0---%---0---0---0---%---2-------------|
A|-2----2----2---2---2---2-----------0---0---|-0-----------------------0---0---0-------0---------2---|
E|-0----0----0---0---3---0-------------------|---------3---3---3-----------------------------0---3---|

E|-------------------------------------------|-------------------------------------------------------|
B|-------------------------------------------|-------------------------3---3---3---------------------|
G|----------------------------%------2---2---|-2---%---0---0---0---%---2---2---2---%---2-------------|
D|-2----2----2---2-------2----%------2---2---|-2---%---0---0---0---%---0---0---0---%---2-------------|
A|-2----2----2---2---2---2-----------0---0---|-0-----------------------0---0---0-------0---------2---|
E|-0----0----0---0---3---0-------------------|---------3---3---3-----------------------------0---3---|

E|-------------------------------------------|-------------------------------------------------------|
B|-------------------------------------------|-------------------------3---3---3---------------------|
G|----------------------------%------2---2---|-2---%---0---0---0---%---2---2---2---%---2-------------|
D|-2----2----2---2-------2----%------2---2---|-2---%---0---0---0---%---0---0---0---%---2-------------|
A|-2----2----2---2---2---2-----------0---0---|-0-----------------------0---0---0-------0---------2---|
E|-0----0----0---0---3---0-------------------|---------3---3---3-----------------------------0---3---|

E|-------------------------------------------|-------------------------------------------------------|
B|-------------------------------------------|-------------------------3---3---3---------------------|
G|----------------------------%------2---2---|-2---%---0---0---0---%---2---2---2---%---2-------------|
D|-2----2----2---2-------2----%------2---2---|-2---%---0---0---0---%---0---0---0---%---2-------------|
A|-2----2----2---2---2---2-----------0---0---|-0-----------------------0---0---0-------0---------2---|
E|-0----0----0---0---3---0-------------------|---------3---3---3-----------------------------0---3---|

E|-------------------------------------------|------------------------------------------------|
B|-------------------------------------------|-------------------------3---3---3--------------|
G|----------------------------%------2---2---|-2---%---0---0---0---%---2---2---2---%---2------|
D|-2----2----2---2-------2----%------2---2---|-2---%---0---0---0---%---0---0---0---%---2------|
A|-2----2----2---2---2---2-----------0---0---|-0-----------------------0---0---0-------0------|
E|-0----0----0---0---3---0-------------------|---------3---3---3------------------------------|

E|-------------------------|--------------------------------------------------------|
B|--------------3-----3----|--------------------------------------------------------|
G|-2------5-----2-----2----|--------------------------------------------------------|
D|-2------5-----0-----0----|-0---2----------------0---2----------------0---2--------|
A|-0------0-----0-----0----|---------3---0---0------------3---0---0------------3----|
E|-------------------------|--------------------------------------------------------|

E|-------------------------|--------------------------------------------------------|
B|--------------3-----3----|--------------------------------------------------------|
G|-2------5-----2-----2----|--------------------------------------------------------|
D|-2------5-----0-----0----|-0---2----------------0---2----------------0---2--------|
A|-0------0-----0-----0----|---------3---0---0------------3---0---0------------3----|
E|-------------------------|--------------------------------------------------------|

E|-------------------------------|--------------------------------------|-------------------------------------------|
B|-------------3-----------------|-------------3------------------------|-------------------------------------------|
G|-4-----2-----2-----2-----4-----|-4-----2-----2-----2-----4------------|-----------------------------------2---2---|
D|-4-----2-----0-----2-----4-----|-4-----2-----0-----2-----4------------|-2----2----2---2-------2----2------2---2---|
A|-2-----0-----------0-----2-----|-2-----0-----------0-----2--------2---|-2----2----2---2---2---2----2------0---0---|
E|-------------------------------|------------------------------0---3---|-0----0----0---0---3---0----0--------------|

E|-------------------------------------------------------|-------------------------------------------|
B|-------------------------3---3---3---3-----------------|-------------------------------------------|
G|-2---2---0---0---0---0---2---2---2---2---2-------------|-----------------------------------2---2---|
D|-2---2---0---0---0---0---0---0---0---0---2-------------|-2----2----2---2-------2----2------2---2---|
A|-0---0-------------------0---0---0---0---0---------2---|-2----2----2---2---2---2----2------0---0---|
E|---------3---3---3---3-------------------------0---3---|-0----0----0---0---3---0----0--------------|

E|----------------------------------------------------|--------------------|--------------------|
B|-------------------------3---3---3---3--------------|--------------------|--------------------|
G|-2---2---0---0---0---0---2---2---2---2---2-----2----|-6-----4-----2------|--------------------|
D|-2---2---0---0---0---0---0---0---0---0---2-----2----|-4-----2-----0------|-5-----5-----2------|
A|-0---0-------------------0---0---0---0---0-----0----|--------------------|-3-----2-----0------|
E|---------3---3---3---3------------------------------|--------------------|--------------------|

E|--------------------|--------------------|---------------------------|-------------------------------------------|
B|--------------------|--------------------|---------------------------|-------------------------------------------|
G|-6-----4-----2------|--------------------|---------------------------|----------------------------%------2---2---|
D|-4-----2-----0------|-5-----5-----2------|-2------2-----2------------|-2----2----2---2-------2----%------2---2---|
A|--------------------|-3-----2-----0------|-0------0-----0--------2---|-2----2----2---2---2---2-----------0---0---|
E|--------------------|--------------------|-3-----------------0---3---|-0----0----0---0---3---0-------------------|

E|-------------------------------------------------------|-------------------------------------------|
B|-------------------------3---3---3---------------------|-------------------------------------------|
G|-2---%---0---0---0---%---2---2---2---%---2-------------|----------------------------%------2---2---|
D|-2---%---0---0---0---%---0---0---0---%---2-------------|-2----2----2---2-------2----%------2---2---|
A|-0-----------------------0---0---0-------0---------2---|-2----2----2---2---2---2-----------0---0---|
E|---------3---3---3-----------------------------0---3---|-0----0----0---0---3---0-------------------|

E|------------------------------------------------|-------------------------|--------------------------------------------------------|
B|-------------------------3---3---3--------------|--------------3-----3----|--------------------------------------------------------|
G|-2---%---0---0---0---%---2---2---2---%---2------|-2------5-----2-----2----|--------------------------------------------------------|
D|-2---%---0---0---0---%---0---0---0---%---2------|-2------5-----0-----0----|-0---2----------------0---2----------------0---2--------|
A|-0-----------------------0---0---0-------0------|-0------0-----0-----0----|---------3---0---0------------3---0---0------------3----|
E|---------3---3---3------------------------------|-------------------------|--------------------------------------------------------|

E|-------------------------|--------------------------------------------------------|
B|--------------3-----3----|--------------------------------------------------------|
G|-2------5-----2-----2----|--------------------------------------------------------|
D|-2------5-----0-----0----|-0---2----------------0---2----------------0---2--------|
A|-0------0-----0-----0----|---------3---0---0------------3---0---0------------3----|
E|-------------------------|--------------------------------------------------------|

E|-------------------------------|--------------------------------------|-------------------------------------------|
B|-------------3-----------------|-------------3------------------------|-------------------------------------------|
G|-4-----2-----2-----2-----4-----|-4-----2-----2-----2-----4------------|-----------------------------------2---2---|
D|-4-----2-----0-----2-----4-----|-4-----2-----0-----2-----4------------|-2----2----2---2-------2----2------2---2---|
A|-2-----0-----------0-----2-----|-2-----0-----------0-----2--------2---|-2----2----2---2---2---2----2------0---0---|
E|-------------------------------|------------------------------0---3---|-0----0----0---0---3---0----0--------------|

E|-------------------------------------------------------|-------------------------------------------|
B|-------------------------3---3---3---3-----------------|-------------------------------------------|
G|-2---2---0---0---0---0---2---2---2---2---2-------------|-----------------------------------2---2---|
D|-2---2---0---0---0---0---0---0---0---0---2-------------|-2----2----2---2-------2----2------2---2---|
A|-0---0-------------------0---0---0---0---0---------2---|-2----2----2---2---2---2----2------0---0---|
E|---------3---3---3---3-------------------------0---3---|-0----0----0---0---3---0----0--------------|

E|----------------------------------------------------|--------------------|--------------------|
B|-------------------------3---3---3---3--------------|--------------------|--------------------|
G|-2---2---0---0---0---0---2---2---2---2---2-----2----|-6-----4-----2------|--------------------|
D|-2---2---0---0---0---0---0---0---0---0---2-----2----|-4-----2-----0------|-5-----5-----2------|
A|-0---0-------------------0---0---0---0---0-----0----|--------------------|-3-----2-----0------|
E|---------3---3---3---3------------------------------|--------------------|--------------------|

E|--------------------|---------------------------|-------------------------------------------------------|
B|--------------------|---------------------------|-------------------------3---3---3---3-----------------|
G|--------------------|-------------------2---2---|-2---2---0---0---0---0---2---2---2---2---2-------------|
D|--------------------|-------------------2---2---|-2---2---0---0---0---0---0---0---0---0---2-------------|
A|-5-----5-----2------|-2------2----2-----0---0---|-0---0-------------------0---0---0---0---0---------2---|
E|-3-----2-----0------|-0------0----0-------------|---------3---3---3---3-------------------------0---3---|

E|-------------------------------------------|-------------------------------------------------------|
B|-------------------------------------------|-------------------------3---3---3---3-----------------|
G|-----------------------------------2---2---|-2---2---0---0---0---0---2---2---2---2---2-----2-------|
D|-2----2----2---2-------2----2------2---2---|-2---2---0---0---0---0---0---0---0---0---2-----2-------|
A|-2----2----2---2---2---2----2------0---0---|-0---0-------------------0---0---0---0---0---------2---|
E|-0----0----0---0---3---0----0--------------|---------3---3---3---3-------------------------0---3---|

E|-------------------------------------------|------------------------------------------------|
B|-------------------------------------------|-------------------------3---3---3---3----------|
G|-----------------------------------2---2---|-2---2---0---0---0---0---2---2---2---2---2------|
D|-2----2----2---2-------2----2------2---2---|-2---2---0---0---0---0---0---0---0---0---2------|
A|-2----2----2---2---2---2----2------0---0---|-0---0-------------------0---0---0---0---0------|
E|-0----0----0---0---3---0----0--------------|---------3---3---3---3--------------------------|

E|-------------------------|--------------------------------------------------------|
B|--------------3-----3----|--------------------------------------------------------|
G|-2------5-----2-----2----|--------------------------------------------------------|
D|-2------5-----0-----0----|-0---2----------------0---2----------------0---2--------|
A|-0------0-----0-----0----|---------3---0---0------------3---0---0------------3----|
E|-------------------------|--------------------------------------------------------|

E|-------------------------|--------------------------------------------------------|
B|--------------3-----3----|--------------------------------------------------------|
G|-2------5-----2-----2----|--------------------------------------------------------|
D|-2------5-----0-----0----|-0---2----------------0---2----------------0---2--------|
A|-0------0-----0-----0----|---------3---0---0------------3---0---0------------3----|
E|-------------------------|--------------------------------------------------------|

E|-------------------------------|--------------------------------------|-------------------------------------------|
B|-------------3-----------------|-------------3------------------------|-------------------------------------------|
G|-4-----2-----2-----2-----4-----|-4-----2-----2-----2-----4------------|-----------------------------------2---2---|
D|-4-----2-----0-----2-----4-----|-4-----2-----0-----2-----4------------|-2----2----2---2-------2----2------2---2---|
A|-2-----0-----------0-----2-----|-2-----0-----------0-----2--------2---|-2----2----2---2---2---2----2------0---0---|
E|-------------------------------|------------------------------0---3---|-0----0----0---0---3---0----0--------------|

E|-------------------------------------------------------|----------------------------------------|
B|-------------------------3---3---3---3-----------------|----------------------------------------|
G|-2---2---0---0---0---0---2---2---2---2---2-----2-------|----------------------------------------|
D|-2---2---0---0---0---0---0---0---0---0---2-----2-------|-2----2----2---2-------2----2------2----|
A|-0---0-------------------0---0---0---0---0---------2---|-2----2----2---2---2---2----2------2----|
E|---------3---3---3---3-------------------------0---3---|-0----0----0---0---3---0----0------0----|

E|-----------------------------------------|---------------------------------|---------|
B|-----------------------------------------|-3----3----3----3----------------|---------|
G|-2----2----2----2----0----0----0----0----|-2----2----2----2----2----2------|-2-------|
D|-2----2----2----2----0----0----0----0----|-0----0----0----0----2----2------|-2-------|
A|-0----0----0----0------------------------|-0----0----0----0----0----0------|-0-------|
E|---------------------3----3----3----3----|---------------------------------|---------|
AC-DC - Nervous Shakedown
AC-DC - Nervous Shakedown.gp4