AC-DC - Overdose

AC-DC



Title: Overdose
Album: Let there be rock
Artist: AC/DC
Author: Bon Scott - Malcolm Young - Angus Young

Track 1: Lead  guitar
E|-------------------2----------|-------------------|---------|-------------------------|
B|-------------0----------------|-------------------|---------|-------0----0------0-----|
G|-------2------------------%---|-%-------%---------|-%-------|-------------------------|
D|--------------------------%---|-%-------%---------|-%-------|-1-----------------------|
A|-2----------------------------|---------------X---|---------|-2-----------------------|
E|------------------------------|-------------------|---------|-------------------------|

E|-------------------|-------------------2------2---|-2-------|-------------------0------0---|
B|-0----0-------0----|-------------0----------------|---------|-------------0----------------|
G|-------------------|-------2----------------------|---------|-------1----------------------|
D|-------------------|------------------------------|---------|------------------------------|
A|-------------------|-2----------------------------|---------|------------------------------|
E|-1-----------------|------------------------------|---------|-0----------------------------|

E|-0-------|-------------------2------2---|-2-------|-------------------0------0---|
B|---------|-------------0----------------|---------|-------------0----------------|
G|---------|-------2----------------------|---------|-------1----------------------|
D|---------|------------------------------|---------|------------------------------|
A|---------|-2----------------------------|---------|------------------------------|
E|---------|------------------------------|---------|-0----------------------------|

E|-0-------|-0-----------------|-------------------2------2---|-2-------|-------------------0------0---|
B|---------|-0-----------------|-------------0----------------|---------|-------------0----------------|
G|---------|-1----%-------%----|-------2----------------------|---------|-------1----------------------|
D|---------|-2----%-------%----|------------------------------|---------|------------------------------|
A|---------|-2-----------------|-2----------------------------|---------|------------------------------|
E|---------|-------------------|------------------------------|---------|-0----------------------------|

E|-0-------|-------------------2------2---|-2-------|-------------------0------0---|
B|---------|-------------0----------------|---------|-------------0----------------|
G|---------|-------2----------------------|---------|-------1----------------------|
D|---------|------------------------------|---------|------------------------------|
A|---------|-2----------------------------|---------|------------------------------|
E|---------|------------------------------|---------|-0----------------------------|

E|-0-------|-----------------------------|-----------------------------|-----------------------------|
B|---------|--------3--------------------|--------3--------------------|--------3--------------------|
G|---------|-4------2--------------------|-4------2--------------------|-4------2--------------------|
D|---------|-4------0-----2--------------|-4------0-----2--------------|-4------0-----2--------------|
A|---------|-2------------2----2----X----|-2------------2----2----X----|-2------------2----2----X----|
E|---------|--------------0----0----X----|--------------0----0----X----|--------------0----0----X----|

E|-----------------------------|-----------------------------|-----------------------------|
B|--------3--------------------|--------3--------------------|--------3--------------------|
G|-4------2--------------------|-4------2--------------------|-4------2--------------------|
D|-4------0-----2--------------|-4------0-----2--------------|-4------0-----2--------------|
A|-2------------2----2----X----|-2------------2----2----X----|-2------------2----2----X----|
E|--------------0----0----X----|--------------0----0----X----|--------------0----0----X----|

E|-----------------------------|-----------------------------|-----------------------------|
B|--------3--------------------|--------3--------------------|--------3--------------------|
G|-4------2--------------------|-4------2--------------------|-4------2--------------------|
D|-4------0-----2--------------|-4------0-----2--------------|-4------0-----2--------------|
A|-2------------2----2----X----|-2------------2----2----X----|-2------------2----2----X----|
E|--------------0----0----X----|--------------0----0----X----|--------------0----0----X----|

E|-----------------------------|-----------------------------|-----------------------------|
B|--------3--------------------|--------3--------------------|--------3--------------------|
G|-4------2--------------------|-4------2--------------------|-4------2--------------------|
D|-4------0-----2--------------|-4------0-----2--------------|-4------0-----2--------------|
A|-2------------2----2----X----|-2------------2----2----X----|-2------------2----2----X----|
E|--------------0----0----X----|--------------0----0----X----|--------------0----0----X----|

E|-----------------------------|-----------------------------|-----------------------------|
B|--------3--------------------|--------3--------------------|--------3--------------------|
G|-4------2--------------------|-4------2--------------------|-4------2--------------------|
D|-4------0-----2--------------|-4------0-----2--------------|-4------0-----2--------------|
A|-2------------2----2----X----|-2------------2----2----X----|-2------------2----2----X----|
E|--------------0----0----X----|--------------0----0----X----|--------------0----0----X----|

E|-----------------------------|-----------------------------|-----------------------------|
B|--------3--------------------|--------3--------------------|--------3--------------------|
G|-4------2--------------------|-4------2--------------------|-4------2--------------------|
D|-4------0-----2--------------|-4------0-----2--------------|-4------0-----2--------------|
A|-2------------2----2----X----|-2------------2----2----X----|-2------------2----2----X----|
E|--------------0----0----X----|--------------0----0----X----|--------------0----0----X----|

E|-----------------------------|-----------------------------|-----------------------------|
B|--------3--------------------|--------3--------------------|--------3--------------------|
G|-4------2--------------------|-4------2--------------------|-4------2--------------------|
D|-4------0-----2--------------|-4------0-----2--------------|-4------0-----2--------------|
A|-2------------2----2----X----|-2------------2----2----X----|-2------------2----2----X----|
E|--------------0----0----X----|--------------0----0----X----|--------------0----0----X----|

E|-----------------------------|-----------------------------|-----------------------------|
B|--------3--------------------|--------3--------------------|--------3--------------------|
G|-4------2--------------------|-4------2--------------------|-4------2--------------------|
D|-4------0-----2--------------|-4------0-----2--------------|-4------0-----2--------------|
A|-2------------2----2----X----|-2------------2----2----X----|-2------------2----2----X----|
E|--------------0----0----X----|--------------0----0----X----|--------------0----0----X----|

E|-----------------------------|-----------------------------|-----------------------------|
B|--------3--------------------|--------3--------------------|--------3--------------------|
G|-4------2--------------------|-4------2--------------------|-4------2--------------------|
D|-4------0-----2--------------|-4------0-----2--------------|-4------0-----2--------------|
A|-2------------2----2----X----|-2------------2----2----X----|-2------------2----2----X----|
E|--------------0----0----X----|--------------0----0----X----|--------------0----0----X----|

E|-----------------------------|-----------------------------|-----------------------------|
B|--------3--------------------|--------3--------------------|--------3--------------------|
G|-4------2--------------------|-4------2--------------------|-4------2--------------------|
D|-4------0-----2--------------|-4------0-----2--------------|-4------0-----2--------------|
A|-2------------2----2----X----|-2------------2----2----X----|-2------------2----2----X----|
E|--------------0----0----X----|--------------0----0----X----|--------------0----0----X----|

E|-----------------------------|-----------------------------|-----------------------------|
B|--------3--------------------|--------3--------------------|--------3--------------------|
G|-4------2--------------------|-4------2--------------------|-4------2--------------------|
D|-4------0-----2--------------|-4------0-----2--------------|-4------0-----2--------------|
A|-2------------2----2----X----|-2------------2----2----X----|-2------------2----2----X----|
E|--------------0----0----X----|--------------0----0----X----|--------------0----0----X----|

E|-----------------------------|------------------------------|---------|-2-------|
B|--------3--------------------|------------------------------|---------|-3-------|
G|-4------2--------------------|-4-----4-----4-----4---%------|-1-------|-2-------|
D|-4------0-----2--------------|-4-----4-----4-----4---%------|-2-------|-0-------|
A|-2------------2----2----X----|-2-----2-----2-----2----------|-2-------|---------|
E|--------------0----0----X----|------------------------------|-0-------|---------|

E|---------|-2-------|---------|-2-------|---------|-2-----2-----2------|---------|
B|---------|-3-------|---------|-3-------|---------|-3-----3-----3------|---------|
G|-1-------|-2-------|-1-------|-2-------|-1-------|-2-----2-----2------|---------|
D|-2-------|-0-------|-2-------|-0-------|-2-------|-0-----0-----0------|-7-------|
A|-2-------|---------|-2-------|---------|-2-------|--------------------|---------|
E|-0-------|---------|-0-------|---------|-0-------|--------------------|---------|

E|----------------------------------------|-------------------|----------------------------------|
B|----------------------------------------|-------------------|----------------------------------|
G|----------------------------------------|-------------------|----------------------------------|
D|-9------7---9---7---6---7---6---4---6---|-4---2-------2-----|-2---4---2---4---2---4------4-----|
A|----------------------------------------|-------------------|----------------------------------|
E|----------------------------------------|-------------------|----------------------------------|

E|----------------------------|-----------------------------2------------------|--------------------|
B|----------------------------|-------------2---3---5---3-------5---3---5------|-6----5------5------|
G|---------------1------2-----|-1---2---4--------------------------------------|--------------------|
D|-4-----2---4----------------|------------------------------------------------|--------------------|
A|----------------------------|------------------------------------------------|--------------------|
E|----------------------------|------------------------------------------------|--------------------|

E|---------|---------|-----------------------------|-----------------------------|-----------------------------|
B|-7-------|-7-------|--------3--------------------|--------3--------------------|--------3--------------------|
G|---------|---------|-4------2--------------------|-4------2--------------------|-4------2--------------------|
D|---------|---------|-4------0-----2--------------|-4------0-----2--------------|-4------0-----2--------------|
A|---------|---------|-2------------2----2----X----|-2------------2----2----X----|-2------------2----2----X----|
E|---------|---------|--------------0----0----X----|--------------0----0----X----|--------------0----0----X----|

E|-----------------------------|-----------------------------|-----------------------------|
B|--------3--------------------|--------3--------------------|--------3--------------------|
G|-4------2--------------------|-4------2--------------------|-4------2--------------------|
D|-4------0-----2--------------|-4------0-----2--------------|-4------0-----2--------------|
A|-2------------2----2----X----|-2------------2----2----X----|-2------------2----2----X----|
E|--------------0----0----X----|--------------0----0----X----|--------------0----0----X----|

E|-----------------------------|-----------------------------|-----------------------------|
B|--------3--------------------|--------3--------------------|--------3--------------------|
G|-4------2--------------------|-4------2--------------------|-4------2--------------------|
D|-4------0-----2--------------|-4------0-----2--------------|-4------0-----2--------------|
A|-2------------2----2----X----|-2------------2----2----X----|-2------------2----2----X----|
E|--------------0----0----X----|--------------0----0----X----|--------------0----0----X----|

E|-----------------------------|-----------------------------|-----------------------------|
B|--------3--------------------|--------3--------------------|--------3--------------------|
G|-4------2--------------------|-4------2--------------------|-4------2--------------------|
D|-4------0-----2--------------|-4------0-----2--------------|-4------0-----2--------------|
A|-2------------2----2----X----|-2------------2----2----X----|-2------------2----2----X----|
E|--------------0----0----X----|--------------0----0----X----|--------------0----0----X----|

E|-----------------------------|-----------------------------|-----------------------------|
B|--------3--------------------|--------3--------------------|--------3--------------------|
G|-4------2--------------------|-4------2--------------------|-4------2--------------------|
D|-4------0-----2--------------|-4------0-----2--------------|-4------0-----2--------------|
A|-2------------2----2----X----|-2------------2----2----X----|-2------------2----2----X----|
E|--------------0----0----X----|--------------0----0----X----|--------------0----0----X----|

E|------------------------------|---------|-2-------|---------|-2-------|---------|
B|------------------------------|---------|-3-------|---------|-3-------|---------|
G|-4-----4-----4-----4---%------|-1-------|-2-------|-1-------|-2-------|-1-------|
D|-4-----4-----4-----4---%------|-2-------|-0-------|-2-------|-0-------|-2-------|
A|-2-----2-----2-----2----------|-2-------|---------|-2-------|---------|-2-------|
E|------------------------------|-0-------|---------|-0-------|---------|-0-------|

E|-2-------|---------|-2-----2-----2------|-------------------|-----------------------------|
B|-3-------|---------|-3-----3-----3------|-------------------|-----------------------------|
G|-2-------|-1-------|-2-----2-----2------|-------------------|-----------------------------|
D|-0-------|-2-------|-0-----0-----0------|-7---9-------9-----|-9-----7---9------9-----9----|
A|---------|-2-------|--------------------|-------------------|-----------------------------|
E|---------|-0-------|--------------------|-------------------|-----------------------------|

E|----------------------------|-------------------------------|-------------------------------|
B|----------------------------|-------------------------------|-------------------------------|
G|----------------------------|-------------------------------|-------------------------------|
D|-9------9---7---9-----9-----|-7---7---9------7---7---9------|-7---7---9------7---7---9------|
A|----------------------------|-------------------------------|-------------------------------|
E|----------------------------|-------------------------------|-------------------------------|

E|----------------------------------------|--------------------------------|--------------------------------|
B|----------------------------------------|--------------------------------|--------------------------------|
G|-8-------------------7------------------|------7------------------9------|-11---9---7---------9------11---|
D|-------9---7---9----------9---7---9-----|-9---------9---7---9------------|--------------9-----------------|
A|----------------------------------------|--------------------------------|--------------------------------|
E|----------------------------------------|--------------------------------|--------------------------------|

E|----------------------------------------7-------|-------------------------------7--------------------|
B|-7---6--------------------------------------10--|-7-------7-----------------7-------7---10---12------|
G|---------9---7---9---7-------9------------------|-----9-------7---9-----11-----------------------11--|
D|-------------------------9-------9--------------|----------------------------------------------------|
A|------------------------------------------------|----------------------------------------------------|
E|------------------------------------------------|----------------------------------------------------|

E|-----------------------------7-------------------7---------------|-----------------7-------------------7-------------------7-------|
B|-10--7---10--12--10--7---10------12--10--10--12------10--7---10--|-10--7---10--12------10--7---10--12------10--7---10--12------10--|
G|-----------------------------------------------------------------|-----------------------------------------------------------------|
D|-----------------------------------------------------------------|-----------------------------------------------------------------|
A|-----------------------------------------------------------------|-----------------------------------------------------------------|
E|-----------------------------------------------------------------|-----------------------------------------------------------------|

E|-----7------------------------7------------------------7---|-------------------------|
B|-7-------7---10---12------7-------7---10---11------7-------|-10---10-----12---12-----|
G|----------------------11-----------------------11----------|-------------------------|
D|-----------------------------------------------------------|-------------------------|
A|-----------------------------------------------------------|-------------------------|
E|-----------------------------------------------------------|-------------------------|

E|--------------------|-22-----24--25--22--19------------------|-------------------------------------------------|
B|-22-----22-----22---|------------------------22--19--22------|-19----------------------------------------------|
G|--------------------|------------------------------------21--|-----21--22--19------21------19------------------|
D|--------------------|----------------------------------------|-----------------21------21--------19---21----21-|
A|--------------------|----------------------------------------|-------------------------------------------------|
E|--------------------|----------------------------------------|-------------------------------------------------|

E|------------------------19--------------|--------------------------------------------------------------|
B|-------------22-----24------22--19--22--|-19--19--19-----------------------19--22--19------19----------|
G|-X---X---X------------------------------|-------------22--21--19--21--23---------------22------22--21--|
D|----------------------------------------|--------------------------------------------------------------|
A|----------------------------------------|--------------------------------------------------------------|
E|----------------------------------------|--------------------------------------------------------------|

E|-----22----25--22--24--22--21--19----------------------|-------------------------------------------------|
B|-----------------------------------22--21--19------19--|-------------------------------------------------|
G|-19--------------------------------------------21------|-22--21--19--------------------------------------|
D|-------------------------------------------------------|-------------21--19------------------------------|
A|-------------------------------------------------------|---------------------21--19--17--19--17----17----|
E|-------------------------------------------------------|-------------------------------------------------|

E|-------------------------------------|--------------------------------------------------------|
B|-------------------------------------|--------------------------------------------------------|
G|--------16--16--16---%---16--16--%---|-16--16--16---%---16--16--16---%---16--16---%---16--16--|
D|---------------------%-----------%---|--------------%----------------%------------%-----------|
A|-17----------------------------------|--------------------------------------------------------|
E|-------------------------------------|--------------------------------------------------------|

E|------------------------------------------------|-----7-------7---10--7-----------7----------------------------|
B|---------19--22-----19--19--17------------------|---------10--------------10--7-------7------------------------|
G|-16--X--------------------------19--19--18--16--|-16--------------------------------------9---7-------9---7----|
D|------------------------------------------------|-------------------------------------------------9------------|
A|------------------------------------------------|--------------------------------------------------------------|
E|------------------------------------------------|--------------------------------------------------------------|

E|-----------------------------------5---7---10--7-------|-9---------------7---------22--19----------22--19------|
B|-----------3---5---3---7---5---7-------------------7---|-----7---9---10--------19--X-------19--19----------19--|
G|-7-----4-----------------------------------------------|-------------------------------------------------------|
D|-------------------------------------------------------|-------------------------------------------------------|
A|-------------------------------------------------------|-------------------------------------------------------|
E|-------------------------------------------------------|-------------------------------------------------------|

E|-22--19------22--19------22--19------22--19------22--19------22--|---------19------19------------------|
B|---------19----------19----------19----------19----------19------|-19--22------19------22---24-----24--|
G|-----------------------------------------------------------------|-------------------------------------|
D|-----------------------------------------------------------------|-------------------------------------|
A|-----------------------------------------------------------------|-------------------------------------|
E|-----------------------------------------------------------------|-------------------------------------|

E|---------|---------|-----------------------------|-----------------------------|-----------------------------|
B|-24------|---------|--------3--------------------|--------3--------------------|--------3--------------------|
G|---------|-%-------|-4------2--------------------|-4------2--------------------|-4------2--------------------|
D|---------|-%-------|-4------0-----2--------------|-4------0-----2--------------|-4------0-----2--------------|
A|---------|---------|-2------------2----2----X----|-2------------2----2----X----|-2------------2----2----X----|
E|---------|---------|--------------0----0----X----|--------------0----0----X----|--------------0----0----X----|

E|-----------------------------|-----------------------------|------------------------------|
B|--------3--------------------|--------3--------------------|------------------------------|
G|-4------2--------------------|-4------2--------------------|-4-----4-----4-----4---%------|
D|-4------0-----2--------------|-4------0-----2--------------|-4-----4-----4-----4---%------|
A|-2------------2----2----X----|-2------------2----2----X----|-2-----2-----2-----2----------|
E|--------------0----0----X----|--------------0----0----X----|------------------------------|

E|---------|-2-------|---------|-2-------|---------|-2-------|---------|-2-----2-----2------|
B|---------|-3-------|---------|-3-------|---------|-3-------|---------|-3-----3-----3------|
G|-1-------|-2-------|-1-------|-2-------|-1-------|-2-------|-1-------|-2-----2-----2------|
D|-2-------|-0-------|-2-------|-0-------|-2-------|-0-------|-2-------|-0-----0-----0------|
A|-2-------|---------|-2-------|---------|-2-------|---------|-2-------|--------------------|
E|-0-------|---------|-0-------|---------|-0-------|---------|-0-------|--------------------|

E|-------------------2------2---|-2-------|-------------------0------0---|-0-------|
B|-------------0----------------|---------|-------------0----------------|---------|
G|-------2----------------------|---------|-------1----------------------|---------|
D|------------------------------|---------|------------------------------|---------|
A|-2----------------------------|---------|------------------------------|---------|
E|------------------------------|---------|-0----------------------------|---------|

E|----------------2----------------|----------------2--------------------|----------------0----------------|
B|-----------0----------0----------|-----------0----------0---------0----|-----------0----------0----------|
G|------2--------------------2-----|------2--------------------2---------|------1--------------------1-----|
D|---------------------------------|-------------------------------------|---------------------------------|
A|-2-------------------------------|-2-----------------------------------|---------------------------------|
E|---------------------------------|-------------------------------------|-0-------------------------------|

E|----------------0--------------------|----------------2--------------2---------|------2--------------2--------------0----|
B|-----------0----------0--------------|-----------0--------------0--------------|-0--------------0--------------0---------|
G|------1--------------------1---------|------2--------------2--------------2----|-----------2--------------2--------------|
D|-------------------------------------|-----------------------------------------|-----------------------------------------|
A|--------------------------------2----|-2---------------------------------------|-----------------------------------------|
E|-0-----------------------------------|-----------------------------------------|-----------------------------------------|

E|-----------0--------------0--------------|-0--------------0--------------0---------|
B|------0--------------0--------------0----|-----------0--------------0--------------|
G|-1--------------1--------------1---------|------1--------------1-------------------|
D|-----------------------------------------|-----------------------------------------|
A|-----------------------------------------|------------------------------------2----|
E|-----------------------------------------|-----------------------------------------|

E|------2--------------2-------------------|-----------0--------------0--------------|
B|-----------0--------------0--------------|------0--------------0--------------0----|
G|-2--------------2--------------2---------|-1--------------1--------------1---------|
D|-----------------------------------------|-----------------------------------------|
A|-----------------------------------------|-----------------------------------------|
E|------------------------------------0----|-----------------------------------------|

E|-0--------------0---------0--------------|------2-----------------------------2----|
B|-----------0---------0-------------------|-0---------0-------------------0---------|
G|------1-----------------------------2----|----------------2---------2--------------|
D|-----------------------------------------|-----------------------------------------|
A|-------------------------------2---------|---------------------2-------------------|
E|-----------------------------------------|-----------------------------------------|

E|--------------------------2--------------|----------------2--------------2-----|-2-------|
B|-0-------------------0---------0---------|-----------0---------0---------0-----|-0-------|
G|------2---------2-------------------2----|------2-------------------2----2-----|-2-------|
D|-----------------------------------------|-------------------------------1-----|-1-------|
A|-----------2-----------------------------|-2-----------------------------2-----|-2-------|
E|-----------------------------------------|-------------------------------------|---------|

E|-2-------|
B|-0-------|
G|-2-------|
D|-1-------|
A|-2-------|
E|---------|
AC-DC - Overdose
AC-DC - Overdose.gp4