AC-DC - Problem Child (2)

AC-DC



Title: Problem Child
Album: Let There Be Rock
Artist: AC/DC
Author: 

Track 1: Cliff Williams / Bass
G|------------------------|-------------------------|-------------------------|-------------------------|
D|-%----%------0----------|-------%------0----------|-------%------0----------|-------%------0----------|
A|-%----%------------0----|-0-----%-----------------|-------%------------0----|-0-----%------5----------|
E|------------------------|--------------------3----|-3-----------------------|--------------------3----|

G|-------------------------|-------------------------|-------------------------|-------------------------|
D|-------%------0----------|-------%------0----------|-------%------0----------|-------%------0----------|
A|-------%------------0----|-0-----%-----------------|-------%------------0----|-0-----%-----------------|
E|-3-----------------------|--------------------3----|-3-----------------------|--------------------3----|

G|-------------------------|-------------------------|-------------------------|-------------------------|
D|-------%------0----------|-------%------0----------|-------%------0----------|-------%------0----------|
A|-------%------------0----|-0-----%-----------------|-------%------------0----|-0-----%-----------------|
E|-3-----------------------|--------------------3----|-3-----------------------|--------------------3----|

G|-------------------------|-------------------------|-------------------------|-------------------------|
D|-------%------0----------|-------%------0----------|-------%------0----------|-------%------0----------|
A|-------%------------0----|-0-----%-----------------|-------%------------0----|-0-----%-----------------|
E|-3-----------------------|--------------------3----|-3-----------------------|--------------------3----|

G|-----------------------------|-----------------------------------------|-----------------------------------------|
D|-------%----------------0----|-0----0----0----0----0--------------0----|-0----0----0----0----0--------------0----|
A|-------%---------------------|-----------------------------------------|-----------------------------------------|
E|-3------------3----3---------|--------------------------3----3---------|--------------------------3----3---------|

G|-----------------------------------------|-----------------------------------------|
D|-0----0----0----0----0--------------0----|-0----0----0----0----0-------------------|
A|-----------------------------------------|--------------------------0----0---------|
E|--------------------------3----3---------|------------------------------------0----|

G|-----------------------------------------|-----------------------------------------|
D|-----------------------------------------|-----------------------------------------|
A|--------------------------0----0---------|--------------------------0----0---------|
E|-0----0----0----0----0--------------0----|-0----0----0----0----0--------------0----|

G|-----------------------------------------|-------------------------------------|-----------------------------------------|
D|-----------------------------------------|-------------------------------------|-----------------------------------------|
A|--------------------------0----0---------|--------------------------------0----|-0----0----0----0----0----0----0----0----|
E|-0----0----0----0----0--------------0----|-0----0----0----0----0----3----------|-----------------------------------------|

G|-----------------------------------------|-----------------------------------------|
D|-----------------------------------------|-----------------------------------------|
A|-0----0----0----0----0----0----0----0----|-0----0----0----0----0----0----0----0----|
E|-----------------------------------------|-----------------------------------------|

G|-----------------------------------------|-----------------------------------------|
D|-----------------------------------------|-----------------------------------------|
A|-0----0----0----0----0--------------0----|-0----0----0----0----0----0----0----0----|
E|--------------------------3----3---------|-----------------------------------------|

G|-----------------------------------------|-----------------------------------------|
D|-----------------------------------------|-----------------------------------------|
A|-0----0----0----0----0----0----0----0----|-0----0----0----0----0-------------------|
E|-----------------------------------------|--------------------------3----3----0----|

G|-----------------------------------------|-------------------------------------|------------------------|
D|-----------------------------------------|--------------------------0----------|------%------0----------|
A|-----------------------------------------|--------------------------------0----|-0----%-----------------|
E|-0----0----0----0----0----0----0----0----|-0----0----0----0----0---------------|-------------------3----|

G|-------------------------|-------------------------|-------------------------|-------------------------|
D|-------%------0----------|-------%------0----------|-------%------0----------|-------%------0----------|
A|-------%------------0----|-0-----%-----------------|-------%------------0----|-0-----%-----------------|
E|-3-----------------------|--------------------3----|-3-----------------------|--------------------3----|

G|-------------------------|-------------------------|-------------------------|-------------------------|
D|-------%------0----------|-------%------0----------|-------%------0----------|-------%------0----------|
A|-------%------------0----|-0-----%-----------------|-------%------------0----|-0-----%-----------------|
E|-3-----------------------|--------------------3----|-3-----------------------|--------------------3----|

G|-------------------------|-------------------------|-----------------------------|
D|-------%------0----------|-------%------0----------|-------%----------------0----|
A|-------%------------0----|-0-----%-----------------|-------%---------------------|
E|-3-----------------------|--------------------3----|-3------------3----3---------|

G|-----------------------------------------|-----------------------------------------|
D|-0----0----0----0----0--------------0----|-0----0----0----0----0--------------0----|
A|-----------------------------------------|-----------------------------------------|
E|--------------------------3----3---------|--------------------------3----3---------|

G|-----------------------------------------|-----------------------------------------|
D|-0----0----0----0----0--------------0----|-0----0----0----0----0-------------------|
A|-----------------------------------------|--------------------------0----0---------|
E|--------------------------3----3---------|------------------------------------0----|

G|-----------------------------------------|-----------------------------------------|
D|-----------------------------------------|-----------------------------------------|
A|--------------------------0----0---------|--------------------------0----0---------|
E|-0----0----0----0----0--------------0----|-0----0----0----0----0--------------0----|

G|-----------------------------------------|-------------------------------------|-----------------------------------------|
D|-----------------------------------------|-------------------------------------|-----------------------------------------|
A|--------------------------0----0---------|--------------------------------0----|-0----0----0----0----0----0----0----0----|
E|-0----0----0----0----0--------------0----|-0----0----0----0----0----3----------|-----------------------------------------|

G|-----------------------------------------|-----------------------------------------|
D|-----------------------------------------|-----------------------------------------|
A|-0----0----0----0----0----0----0----0----|-0----0----0----0----0----0----0----0----|
E|-----------------------------------------|-----------------------------------------|

G|-----------------------------------------|-----------------------------------------|
D|-----------------------------------------|-----------------------------------------|
A|-0----0----0----0----0--------------0----|-0----0----0----0----0----0----0----0----|
E|--------------------------3----3---------|-----------------------------------------|

G|-----------------------------------------|-----------------------------------------|
D|-----------------------------------------|-----------------------------------------|
A|-0----0----0----0----0----0----0----0----|-0----0----0----0----0-------------------|
E|-----------------------------------------|--------------------------3----3----0----|

G|-----------------------------------------|-----------------------------------------|
D|-----------------------------------------|-----------------------------------------|
A|-----------------------------------------|-----------------------------------------|
E|-0----0----0----0----0----0----0----0----|-0----0----0----0----0----0----0----0----|

G|-----------------------------------------|-----------------------------------------|
D|-----------------------------------------|-----------------------------------------|
A|-2----2----2----2----2----2----2----2----|-2----2----2----2----2----2----2----2----|
E|-----------------------------------------|-----------------------------------------|

G|-----------------------------------------|-----------------------------------------|
D|-----------------------------------------|-----------------------------------------|
A|-2----2----2----2----2----2----2----2----|-2----2----2----2----2----2----2----2----|
E|-----------------------------------------|-----------------------------------------|

G|-----------------------------------------|-----------------------------------------|
D|-----------------------------------------|-----------------------------------------|
A|-2----2----2----2----2----2----2----2----|-2----2----2----2----2----2----2----2----|
E|-----------------------------------------|-----------------------------------------|

G|-----------------------------------------|-----------------------------------------|
D|-----------------------------------------|-----------------------------------------|
A|-2----2----2----2----2----2----2----2----|-2----2----2----2----2----2----2----2----|
E|-----------------------------------------|-----------------------------------------|

G|-----------------------------------------|-----------------------------------------|
D|-----------------------------------------|-----------------------------------------|
A|-0----0----0----0----0----0----0----0----|-0----0----0----0----0----0----0----0----|
E|-----------------------------------------|-----------------------------------------|

G|-----------------------------------------|-----------------------------------------|
D|-----------------------------------------|-----------------------------------------|
A|-0----0----0----0----0----0----0----0----|-0----0----0----0----0--------------0----|
E|-----------------------------------------|--------------------------3----3---------|

G|-----------------------------------------|-----------------------------------------|
D|-----------------------------------------|-----------------------------------------|
A|-0----0----0----0----0----0----0----0----|-0----0----0----0----0----0----0----0----|
E|-----------------------------------------|-----------------------------------------|

G|-----------------------------------------|-----------------------------------------|
D|-----------------------------------------|-----------------------------------------|
A|-0----0----0----0----0-------------------|-----------------------------------------|
E|--------------------------3----3----0----|-0----0----0----0----0----0----0----0----|

G|-----------------------------------------|-----------------------------------------|
D|-----------------------------------------|-----------------------------------------|
A|-----------------------------------------|-----------------------------------------|
E|-0----0----0----0----0----0----0----0----|-0----0----0----0----0----0----0----0----|

G|-------------------------------------|-------------------------|-------------------------|
D|--------------------------0----------|-------%------0----------|-------%------0----------|
A|--------------------------------0----|-0-----%-----------------|-------%------------0----|
E|-0----0----0----0----0---------------|--------------------3----|-3-----------------------|

G|-------------------------|-------------------------|-------------------------|-------------------------|
D|-------%------0----------|-------%------0----------|-------%------0----------|-------%------0----------|
A|-0-----%------5----------|-------%------------0----|-0-----%-----------------|-------%------------0----|
E|--------------------3----|-3-----------------------|--------------------3----|-3-----------------------|

G|-------------------------|-------------------------|-------------------------|-------------------------|
D|-------%------0----------|-------%------0----------|-------%------0----------|-------%------0----------|
A|-0-----%-----------------|-------%------------0----|-0-----%-----------------|-------%------------0----|
E|--------------------3----|-3-----------------------|--------------------3----|-3-----------------------|

G|-------------------------|-------------------------|-------------------------|-------------------------|
D|-------%------0----------|-------%------0----------|-------%------0----------|-------%------0----------|
A|-0-----%-----------------|-------%------------0----|-0-----%-----------------|-------%------------0----|
E|--------------------3----|-3-----------------------|--------------------3----|-3-----------------------|

G|-------------------------|-----------------------------|-----------------------------------------|
D|-------%------0----------|-------%----------------0----|-0----0----0----0----0--------------0----|
A|-0-----%-----------------|-------%---------------------|-----------------------------------------|
E|--------------------3----|-3------------3----3---------|--------------------------3----3---------|

G|-----------------------------------------|-----------------------------------------|
D|-0----0----0----0----0--------------0----|-0----0----0----0----0--------------0----|
A|-----------------------------------------|-----------------------------------------|
E|--------------------------3----3---------|--------------------------3----3---------|

G|-----------------------------------------|-----------------------------------------|
D|-0----0----0----0----0-------------------|-----------------------------------------|
A|--------------------------0----0---------|--------------------------0----0---------|
E|------------------------------------0----|-0----0----0----0----0--------------0----|

G|-----------------------------------------|-----------------------------------------|
D|-----------------------------------------|-----------------------------------------|
A|--------------------------0----0---------|--------------------------0----0---------|
E|-0----0----0----0----0--------------0----|-0----0----0----0----0--------------0----|

G|-------------------------------------|-----------------------------------------|-----------------------------------------|
D|-------------------------------------|-----------------------------------------|-----------------------------------------|
A|--------------------------------0----|-0----0----0----0----0----0----0----0----|-0----0----0----0----0----0----0----0----|
E|-0----0----0----0----0----3----------|-----------------------------------------|-----------------------------------------|

G|-----------------------------------------|-----------------------------------------|
D|-----------------------------------------|-----------------------------------------|
A|-0----0----0----0----0----0----0----0----|-0----0----0----0----0--------------0----|
E|-----------------------------------------|--------------------------3----3---------|

G|-----------------------------------------|-----------------------------------------|
D|-----------------------------------------|-----------------------------------------|
A|-0----0----0----0----0----0----0----0----|-0----0----0----0----0----0----0----0----|
E|-----------------------------------------|-----------------------------------------|

G|-----------------------------------------|-----------------------------------------|
D|-----------------------------------------|-----------------------------------------|
A|-0----0----0----0----0----0----0----0----|-0----0----0----0----0--------------0----|
E|-----------------------------------------|--------------------------3----3---------|

G|-----------------------------------------|-----------------------------------------|
D|-----------------------------------------|-----------------------------------------|
A|-0----0----0----0----0----0----0----0----|-0----0----0----0----0----0----0----0----|
E|-----------------------------------------|-----------------------------------------|

G|-----------------------------------------|-----------------------------------------|
D|-----------------------------------------|-----------------------------------------|
A|-0----0----0----0----0----0----0----0----|-0----0----0----0----0--------------0----|
E|-----------------------------------------|--------------------------3----3---------|

G|-----------------------------------------|-----------------------------------------|
D|-----------------------------------------|-----------------------------------------|
A|-0----0----0----0----0----0----0----0----|-0----0----0----0----0----0----0----0----|
E|-----------------------------------------|-----------------------------------------|

G|-----------------------------------------|-----------------------------------------|
D|-----------------------------------------|-----------------------------------------|
A|-0----0----0----0----0----0----0----0----|-0----0----0----0----0----0----0----2----|
E|-----------------------------------------|-----------------------------------------|

G|-----------------------------------------|-----------------------------------------|
D|-----------------------------------------|-----------------------------------------|
A|-2----2----2----2----2----2----2----2----|-2----2----2----2----2----0----0----2----|
E|-----------------------------------------|-----------------------------------------|

G|-----------------------------------------|-----------------------------------------|
D|-----------------------------------------|-----------------------------------------|
A|-2----2----2----2----2----2----2----2----|-2----2----2----2----2----0----0----2----|
E|-----------------------------------------|-----------------------------------------|

G|-----------------------------------------|-----------------------------------------|
D|-----------------------------------------|-----------------------------------------|
A|-2----2----2----2----2----2----2----2----|-2----2----2----2----2----0----0----2----|
E|-----------------------------------------|-----------------------------------------|

G|-----------------------------------------|-----------------------------------------|
D|-----------------------------------------|-----------------------------------------|
A|-2----2----2----2----2----2----2----2----|-2----2----2----2----2----0----0----2----|
E|-----------------------------------------|-----------------------------------------|

G|-----------------------------------------|-----------------------------------------|
D|-----------------------------------------|-----------------------------------------|
A|-2----2----2----2----2----2----2----2----|-2----2----2----2----2----0----0----2----|
E|-----------------------------------------|-----------------------------------------|

G|-----------------------------------------|-----------------------------------------|
D|-----------------------------------------|-----------------------------------------|
A|-2----2----2----2----2----2----2----2----|-2----2----2----2----2----0----0----2----|
E|-----------------------------------------|-----------------------------------------|

G|-----------------------------------------|-----------------------------------------|
D|-----------------------------------------|-----------------------------------------|
A|-2----2----2----2----2----2----2----2----|-2----2----2----2----2----0----0----2----|
E|-----------------------------------------|-----------------------------------------|

G|-----------------------------------------|-----------------------------------------|
D|-----------------------------------------|-----------------------------------------|
A|-2----2----2----2----2----2----2----2----|-2----2----2----2----2----0----0----2----|
E|-----------------------------------------|-----------------------------------------|

G|-----------------------------------------|-----------------------------------------|
D|-----------------------------------------|-----------------------------------------|
A|-2----2----2----2----2----2----2----2----|-2----2----2----2----2----0----0----2----|
E|-----------------------------------------|-----------------------------------------|

G|-----------------------------------------|-----------------------------------------|
D|-----------------------------------------|-----------------------------------------|
A|-2----2----2----2----2----2----2----2----|-2----2----2----2----2----0----0----2----|
E|-----------------------------------------|-----------------------------------------|

G|-----------------------------------------|-----------------------------------------|
D|-----------------------------------------|-----------------------------------------|
A|-2----2----2----2----2----2----2----2----|-2----2----2----2----2----0----0----2----|
E|-----------------------------------------|-----------------------------------------|

G|-----------------------------------------|-----------------------------------------|
D|-----------------------------------------|-----------------------------------------|
A|-2----2----2----2----2----2----2----2----|-2----2----2----2----2----0----0----2----|
E|-----------------------------------------|-----------------------------------------|

G|-----------------------------------------|-----------------------------------------|
D|-----------------------------------------|-----------------------------------------|
A|-2----2----2----2----2----2----2----2----|-2----2----2----2----2----0----0----2----|
E|-----------------------------------------|-----------------------------------------|

G|-----------------------------------------|-----------------------------------------|
D|-----------------------------------------|-----------------------------------------|
A|-2----2----2----2----2----2----2----2----|-2----2----2----2----2----0----0----2----|
E|-----------------------------------------|-----------------------------------------|

G|-----------------------------------------|-----------------------------------------|
D|-----------------------------------------|-----------------------------------------|
A|-2----2----2----2----2----2----2----2----|-2----2----2----2----2----0----0----2----|
E|-----------------------------------------|-----------------------------------------|

G|-----------------------------------------|-----------------------------------------|
D|-----------------------------------------|-----------------------------------------|
A|-2----2----2----2----2----2----2----2----|-2----2----2----2----2----0----0----2----|
E|-----------------------------------------|-----------------------------------------|

G|-----------------------------------------|-----------------------------------------|
D|-----------------------------------------|-----------------------------------------|
A|-2----2----2----2----2----2----2----2----|-2----2----2----2----2----0----0----2----|
E|-----------------------------------------|-----------------------------------------|

G|-----------------------------------------|-----------------------------------------|
D|-----------------------------------------|-----------------------------------------|
A|-2----2----2----2----2----2----2----2----|-2----2----2----2----2----0----0----2----|
E|-----------------------------------------|-----------------------------------------|

G|-----------------------------------------|-----------------------------------------|
D|-----------------------------------------|-----------------------------------------|
A|-2----2----2----2----2----2----2----2----|-2----2----2----2----2----0----0----2----|
E|-----------------------------------------|-----------------------------------------|

G|-----------------------------------------|-----------------------------------------|
D|-----------------------------------------|-----------------------------------------|
A|-2----2----2----2----2----2----2----2----|-2----2----2----2----2----0----0----2----|
E|-----------------------------------------|-----------------------------------------|

G|-----------------------------------------|-----------------------------------------|
D|-----------------------------------------|-----------------------------------------|
A|-2----2----2----2----2----2----2----2----|-2----2----2----2----2----0----0----2----|
E|-----------------------------------------|-----------------------------------------|

G|-----------------------------------------|-----------------------------------------|
D|-----------------------------------------|-----------------------------------------|
A|-2----2----2----2----2----2----2----2----|-2----2----2----2----2----0----0----2----|
E|-----------------------------------------|-----------------------------------------|

G|-----------------------------------------|-----------------------------------------|
D|-----------------------------------------|-----------------------------------------|
A|-2----2----2----2----2----2----2----2----|-2----2----2----2----2----0----0----2----|
E|-----------------------------------------|-----------------------------------------|

G|-----------------------------------------|-----------------------------------------|
D|-----------------------------------------|-----------------------------------------|
A|-2----2----2----2----2----2----2----2----|-2----2----2----2----2----0----0----2----|
E|-----------------------------------------|-----------------------------------------|

G|-----------------------------------------|-----------------------------------------|
D|-----------------------------------------|-----------------------------------------|
A|-2----2----2----2----2----2----2----2----|-2----2----2----2----2----0----0----2----|
E|-----------------------------------------|-----------------------------------------|

G|-----------------------------------------|-----------------------------------------|
D|-----------------------------------------|-----------------------------------------|
A|-2----2----2----2----2----2----2----2----|-2----2----2----2----2----2----2----2----|
E|-----------------------------------------|-----------------------------------------|

G|-----------------------------------------|-----------------------------------------|
D|-----------------------------------------|-----------------------------------------|
A|-2----2----2----2----2----2----2----2----|-2----2----2----2----2----2----2----2----|
E|-----------------------------------------|-----------------------------------------|

G|-----------------------------------------|-----------------------------------------|
D|-----------------------------------------|-----------------------------------------|
A|-2----2----2----2----2----2----2----2----|-2----2----2----2----2----2----2----2----|
E|-----------------------------------------|-----------------------------------------|

G|-----------------------------------------|-----------------------------------------|
D|-----------------------------------------|-----------------------------------------|
A|-2----2----2----2----2----2----2----2----|-2----2----2----2----2----2----2----2----|
E|-----------------------------------------|-----------------------------------------|

G|-----------------------------|-------------------------|---------|
D|------------%-----------%----|-%----------%------------|---------|
A|-2-----2----%------2----%----|-%-----2----%------2-----|-2-------|
E|-----------------------------|-------------------------|---------|
AC-DC - Problem Child (2)
AC-DC - Problem Child (2).gp4