AC-DC - Ride On

AC-DC



Title: Ride On
Album: Dirty Deeds
Artist: AC/DC
Author: 

Track 1: Solo
E|---------|---------|---------|---------|---------|---------|---------|---------|---------|
B|---------|---------|---------|---------|---------|---------|---------|---------|---------|
G|-%-------|-%-------|-%-------|-%-------|-%-------|-%-------|-%-------|-%-------|-%-------|
D|-%-------|-%-------|-%-------|-%-------|-%-------|-%-------|-%-------|-%-------|-%-------|
A|---------|---------|---------|---------|---------|---------|---------|---------|---------|
E|---------|---------|---------|---------|---------|---------|---------|---------|---------|

E|---------|---------|---------|---------|---------|---------|---------|---------|---------|
B|---------|---------|---------|---------|---------|---------|---------|---------|---------|
G|-%-------|-%-------|-%-------|-%-------|-%-------|-%-------|-%-------|-%-------|-%-------|
D|-%-------|-%-------|-%-------|-%-------|-%-------|-%-------|-%-------|-%-------|-%-------|
A|---------|---------|---------|---------|---------|---------|---------|---------|---------|
E|---------|---------|---------|---------|---------|---------|---------|---------|---------|

E|---------|---------|---------|---------|---------|---------|---------|---------|---------|
B|---------|---------|---------|---------|---------|---------|---------|---------|---------|
G|-%-------|-%-------|-%-------|-%-------|-%-------|-%-------|-%-------|-%-------|-%-------|
D|-%-------|-%-------|-%-------|-%-------|-%-------|-%-------|-%-------|-%-------|-%-------|
A|---------|---------|---------|---------|---------|---------|---------|---------|---------|
E|---------|---------|---------|---------|---------|---------|---------|---------|---------|

E|---------|---------|---------|---------|---------|--------------------|---------------------------------------|
B|---------|---------|---------|---------|---------|--------------16----|-16---16---13---13---------------15----|
G|-%-------|-%-------|-%-------|-%-------|-%-------|-%-------%----------|----------------------%-----%----------|
D|-%-------|-%-------|-%-------|-%-------|-%-------|-%-------%----------|----------------------%-----%----------|
A|---------|---------|---------|---------|---------|--------------------|---------------------------------------|
E|---------|---------|---------|---------|---------|--------------------|---------------------------------------|

E|-------15------------------------------|---------------|--------------------|---------|
B|-15---------------15----13---15---13---|-13------------|--------------------|---------|
G|-------------%-------------------------|--------%------|-10----8----8-------|-%-------|
D|-------------%-------------------------|--------%------|--------------------|-%-------|
A|---------------------------------------|---------------|--------------------|---------|
E|---------------------------------------|---------------|--------------------|---------|

E|---------|---------|---------|---------|---------|---------|---------|---------|---------|
B|---------|---------|---------|---------|---------|---------|---------|---------|---------|
G|-%-------|-%-------|-%-------|-%-------|-%-------|-%-------|-%-------|-%-------|-%-------|
D|-%-------|-%-------|-%-------|-%-------|-%-------|-%-------|-%-------|-%-------|-%-------|
A|---------|---------|---------|---------|---------|---------|---------|---------|---------|
E|---------|---------|---------|---------|---------|---------|---------|---------|---------|

E|---------|---------|---------|---------|---------|---------|---------|---------|---------|
B|---------|---------|---------|---------|---------|---------|---------|---------|---------|
G|-%-------|-%-------|-%-------|-%-------|-%-------|-%-------|-%-------|-%-------|-%-------|
D|-%-------|-%-------|-%-------|-%-------|-%-------|-%-------|-%-------|-%-------|-%-------|
A|---------|---------|---------|---------|---------|---------|---------|---------|---------|
E|---------|---------|---------|---------|---------|---------|---------|---------|---------|

E|---------|---------|---------|---------|---------|---------|---------|---------|---------|
B|---------|---------|---------|---------|---------|---------|---------|---------|---------|
G|-%-------|-%-------|-%-------|-%-------|-%-------|-%-------|-%-------|-%-------|-%-------|
D|-%-------|-%-------|-%-------|-%-------|-%-------|-%-------|-%-------|-%-------|-%-------|
A|---------|---------|---------|---------|---------|---------|---------|---------|---------|
E|---------|---------|---------|---------|---------|---------|---------|---------|---------|

E|-------------------------------------------|---------------|------------------8-------------------------------------|
B|-16----16---16---13---13----13--------13---|-13------------|----------------------11--8-------8---------------------|
G|---------------------------------14--------|---------%-----|-%-----%----10----------------10------10--10--8---------|
D|-------------------------------------------|---------%-----|-%-----%------------------------------------------10----|
A|-------------------------------------------|---------------|--------------------------------------------------------|
E|-------------------------------------------|---------------|--------------------------------------------------------|

E|------------------------------------------|-------------------------------------------8---------------------------------|
B|----------------------------------8-------|-8---11--8-------8---11--8-------8---11--------11--8-------------------------|
G|-------10---10---8----8-----10--------10--|-------------10--------------10------------------------11--10--8-------8-----|
D|-10---------------------------------------|-------------------------------------------------------------------10--------|
A|------------------------------------------|-----------------------------------------------------------------------------|
E|------------------------------------------|-----------------------------------------------------------------------------|

E|------------------------------8----10---11-----10---10--|-8---11--8---------8--------8----8------15----|
B|-----------------8---10--11-----------------------------|---------------10-----------------------------|
G|---------8---10-----------------------------------------|-----------------------%----------------------|
D|-8---10-------------------------------------------------|-----------------------%----------------------|
A|--------------------------------------------------------|----------------------------------------------|
E|--------------------------------------------------------|----------------------------------------------|

E|-15---15----17--15--13--12------12---------------|--------------------------------------------------------|
B|----------------------------13------13-----15----|-15----15---15---15---15---15---13---13----15---13--15--|
G|-------------------------------------------------|--------------------------------------------------------|
D|-------------------------------------------------|--------------------------------------------------------|
A|-------------------------------------------------|--------------------------------------------------------|
E|-------------------------------------------------|--------------------------------------------------------|

E|-----15------------18---------17--18--15--18-17-15--------------------------------------|
B|-17------17---18--------18-------------------------18-17-15-18--17-15-------------------|
G|----------------------------------------------------------------------17-15-15--17--15--|
D|----------------------------------------------------------------------------------------|
A|----------------------------------------------------------------------------------------|
E|----------------------------------------------------------------------------------------|

E|---------------|--------------------|----------------------------------------------------------------------------------------|
B|---------------|--------------------|--------------------------------------------------------------8---11--8-----------------|
G|-17-----%------|-%-------%----8-----|---------8------------8---10----------8---10----------8---10--------------10--8----10---|
D|--------%------|-%-------%----------|-10--10-------8---10----------8---10----------8---10------------------------------------|
A|---------------|--------------------|----------------------------------------------------------------------------------------|
E|---------------|--------------------|----------------------------------------------------------------------------------------|

E|----------------8------------------------------------|----------------------------------|
B|------------8-------11--8----------------------------|----------------------------------|
G|-10-----10------------------10--8---8---10--8--------|-8-----------------%---------8----|
D|------------------------------------------------10---|-------10---10-----%----10--------|
A|-----------------------------------------------------|----------------------------------|
E|-----------------------------------------------------|----------------------------------|

E|---------------------8----10---10----8----------13---|-------13-------------------------------------------|
B|------8----10---11-----------------------------------|-16--------16--13------------------------------15---|
G|-10----------------------------------------14--------|-------------------16--15--13--------%----17--------|
D|-----------------------------------------------------|-------------------------------------%--------------|
A|-----------------------------------------------------|-------------------------------15-------------------|
E|-----------------------------------------------------|----------------------------------------------------|

E|------------------------------------------|----------------------------------------------------------------------|
B|-17----17--15-----------------------18----|-18---18--------18--17--15--18--17--15--18--17--15--18--17--15--18----|
G|---------------17---17---17----%----------|-----------%----------------------------------------------------------|
D|-------------------------------%----------|-----------%----------------------------------------------------------|
A|------------------------------------------|----------------------------------------------------------------------|
E|------------------------------------------|----------------------------------------------------------------------|

E|---------------|---------|---------|---------|---------|---------|---------|---------|
B|-18------------|---------|---------|---------|---------|---------|---------|---------|
G|---------%-----|-%-------|-%-------|-%-------|-%-------|-%-------|-%-------|-%-------|
D|---------%-----|-%-------|-%-------|-%-------|-%-------|-%-------|-%-------|-%-------|
A|---------------|---------|---------|---------|---------|---------|---------|---------|
E|---------------|---------|---------|---------|---------|---------|---------|---------|

E|---------|-------8-------------------------|-------8---------------------------------------|
B|---------|-----------8---11----11----------|------------11--8------------------------------|
G|-%-------|-%-------------------------%-----|-%------------------11--10--8------------------|
D|-%-------|-%-------------------------%-----|-%------------------------------10--8---10-----|
A|---------|---------------------------------|-----------------------------------------------|
E|---------|---------------------------------|-----------------------------------------------|

E|------------11------------------------|-------11---11---11--8-----------8-----------|
B|-------8----------13------------------|-------------------------11--8---------------|
G|-%--------------------12--10----%-----|-%-------------------------------------%-----|
D|-%------------------------------%-----|-%-------------------------------------%-----|
A|--------------------------------------|---------------------------------------------|
E|--------------------------------------|---------------------------------------------|

E|---------|---------|-------8-----------------------------|-11---8-----------------------------------------------------------|
B|---------|---------|-11---------11-----------------------|-----------11---8-------------------------------------------------|
G|-%-------|-%-------|----------------12--10---10----10----|---------------------11--10--8------------------------------------|
D|-%-------|-%-------|-------------------------------------|---------------------------------10---8---------------------------|
A|---------|---------|-------------------------------------|-------------------------------------------10--9---8--------------|
E|---------|---------|-------------------------------------|-------------------------------------------------------11---8-----|

E|---------|
B|---------|
G|---------|
D|---------|
A|---------|
E|-8-------|
AC-DC - Ride On
AC-DC - Ride On.gp4