AC-DC - Shot Down In Flames

AC-DC



Title: Shot Down In Flames
Album: Highway To Hell
Artist: AC/DC
Author: 

Track 1: Guitar 1
E|---------|-------------------------------------|---------|-------------------------------------|
B|---------|-----------3--------------3----3-----|-3-------|-----------3--------------3----2-----|
G|-%-------|-0----2----2----0----2----2----2-----|-2-------|-0----2----2----0----2----2----2-----|
D|-%-------|-0--------------0--------------0-----|-0-------|-0--------------0--------------2-----|
A|---------|-------------------------------------|---------|-------------------------------0-----|
E|---------|-------------------------------------|---------|-------------------------------------|

E|---------|-5-----5----3-----------|------------------------|-5-----5----3-----------|
B|-2-------|-5-----5----3-----------|------------------------|-5-----5----3-----------|
G|-2-------|-----------------%------|-7-----7----5----%------|-----------------%------|
D|-2-------|-----------------%------|-7-----7----5----%------|-----------------%------|
A|-0-------|------------------------|------------------------|------------------------|
E|---------|------------------------|------------------------|------------------------|

E|------------------------|-5-----5----3-----------|------------------------|-5-----5----3-----------|
B|------------------------|-5-----5----3-----------|------------------------|-5-----5----3-----------|
G|-7-----7----5----%------|-----------------%------|-7-----7----5----%------|-----------------%------|
D|-7-----7----5----%------|-----------------%------|-7-----7----5----%------|-----------------%------|
A|------------------------|------------------------|------------------------|------------------------|
E|------------------------|------------------------|------------------------|------------------------|

E|------------------------|-5-----5----3-----------|------------------------|-5-----5----3-----------|
B|------------------------|-5-----5----3-----------|------------------------|-5-----5----3-----------|
G|-7-----7----5----%------|-----------------%------|-7-----7----5----%------|-----------------%------|
D|-7-----7----5----%------|-----------------%------|-7-----7----5----%------|-----------------%------|
A|------------------------|------------------------|------------------------|------------------------|
E|------------------------|------------------------|------------------------|------------------------|

E|------------------------|-5-----5----3-----------|------------------------|-5-----5----3-----------|
B|------------------------|-5-----5----3-----------|------------------------|-5-----5----3-----------|
G|-7-----7----5----%------|-----------------%------|-7-----7----5----%------|-----------------%------|
D|-7-----7----5----%------|-----------------%------|-7-----7----5----%------|-----------------%------|
A|------------------------|------------------------|------------------------|------------------------|
E|------------------------|------------------------|------------------------|------------------------|

E|-----------------------------------------|-5-----5----3-----------|------------------------|
B|-3---------3----3---------3----2---------|-5-----5----3-----------|------------------------|
G|-0----2----2----0----2----2----2----2----|-----------------%------|-7-----7----5----%------|
D|------------------------------------2----|-----------------%------|-7-----7----5----%------|
A|-----------------------------------------|------------------------|------------------------|
E|-----------------------------------------|------------------------|------------------------|

E|-5-----5----3-----------|-----------------------------------------|-5-----5----3-----------|
B|-5-----5----3-----------|-3---------3----3---------3----2---------|-5-----5----3-----------|
G|-----------------%------|-0----2----2----0----2----2----2----2----|-----------------%------|
D|-----------------%------|------------------------------------2----|-----------------%------|
A|------------------------|-----------------------------------------|------------------------|
E|------------------------|-----------------------------------------|------------------------|

E|------------------------|-5-----5----3-----------|-----------------------------------------|
B|------------------------|-5-----5----3-----------|-----------3--------------3--------------|
G|-7-----7----5----%------|-----------------%------|-0----2----2----0----2----2----0----2----|
D|-7-----7----5----%------|-----------------%------|-0--------------0--------------0---------|
A|------------------------|------------------------|-----------------------------------------|
E|------------------------|------------------------|-----------------------------------------|

E|-----------------------------------------|------------3----3-------------------|-------------------------------------|
B|-3--------------3--------------3---------|------------3----3----3----3----3----|-3-----3----1----1----1--------------|
G|-2----0----2----2----0----2----2----2----|-2-----2----0----0----0----0----0----|-2-----2----0----0----0----0---------|
D|------0--------------0--------------0----|-2-----2----0----0----0----0----0----|-0-----0-----------------------------|
A|-----------------------------------------|-0-----0-----------------------------|------------3----3----3----3----0----|
E|-----------------------------------------|------------3----3-------------------|-------------------------------------|

E|------------3----3-------------------|-----------------------------------------|-------------------------------------|
B|------------3----3----3----3----3----|-----------------------------------------|-------------------------------------|
G|-2-----2----0----0----0----0----0----|-0----2----2----0----2----2----0----2----|-2----0----2----2----0----2----2-----|
D|-2-----2----0----0----0----0----0----|-0---------0----0---------0----0---------|-0----0---------0----0---------0-----|
A|-0-----0-----------------------------|-----------------------------------------|-------------------------------------|
E|------------3----3-------------------|-----------------------------------------|-------------------------------------|

E|-5-----5----3-----------|------------------------|-5-----5----3-----------|------------------------|
B|-5-----5----3-----------|------------------------|-5-----5----3-----------|------------------------|
G|-----------------%------|-7-----7----5----%------|-----------------%------|-7-----7----5----%------|
D|-----------------%------|-7-----7----5----%------|-----------------%------|-7-----7----5----%------|
A|------------------------|------------------------|------------------------|------------------------|
E|------------------------|------------------------|------------------------|------------------------|

E|-5-----5----3-----------|------------------------|-5-----5----3-----------|-----------------------------------------|
B|-5-----5----3-----------|------------------------|-5-----5----3-----------|-3---------3----3---------3----2---------|
G|-----------------%------|-7-----7----5----%------|-----------------%------|-0----2----2----0----2----2----2----2----|
D|-----------------%------|-7-----7----5----%------|-----------------%------|------------------------------------2----|
A|------------------------|------------------------|------------------------|-----------------------------------------|
E|------------------------|------------------------|------------------------|-----------------------------------------|

E|-5-----5----3-----------|------------------------|-5-----5----3-----------|-----------------------------------------|
B|-5-----5----3-----------|------------------------|-5-----5----3-----------|-3---------3----3---------3----2---------|
G|-----------------%------|-7-----7----5----%------|-----------------%------|-0----2----2----0----2----2----2----2----|
D|-----------------%------|-7-----7----5----%------|-----------------%------|------------------------------------2----|
A|------------------------|------------------------|------------------------|-----------------------------------------|
E|------------------------|------------------------|------------------------|-----------------------------------------|

E|-5-----5----3-----------|------------------------|-5-----5----3-----------|-----------------------------------------|
B|-5-----5----3-----------|------------------------|-5-----5----3-----------|-----------3--------------3--------------|
G|-----------------%------|-7-----7----5----%------|-----------------%------|-0----2----2----0----2----2----0----2----|
D|-----------------%------|-7-----7----5----%------|-----------------%------|-0--------------0--------------0---------|
A|------------------------|------------------------|------------------------|-----------------------------------------|
E|------------------------|------------------------|------------------------|-----------------------------------------|

E|-----------------------------------------|------------3----3-------------------|-------------------------------------|
B|-3--------------3--------------3---------|------------3----3----3----3----3----|-3-----3----1----1----1--------------|
G|-2----0----2----2----0----2----2----2----|-2-----2----0----0----0----0----0----|-2-----2----0----0----0----0---------|
D|------0--------------0--------------0----|-2-----2----0----0----0----0----0----|-0-----0-----------------------------|
A|-----------------------------------------|-0-----0-----------------------------|------------3----3----3----3----0----|
E|-----------------------------------------|------------3----3-------------------|-------------------------------------|

E|------------3----3-------------------|-----------------------------------------|-----------------------------------------|
B|------------3----3----3----3----3----|-----------3--------------3--------------|-3--------------3--------------3---------|
G|-2-----2----0----0----0----0----0----|-0----2----2----0----2----2----0----2----|-2----0----2----2----0----2----2----2----|
D|-2-----2----0----0----0----0----0----|-0--------------0--------------0---------|------0--------------0--------------0----|
A|-0-----0-----------------------------|-----------------------------------------|-----------------------------------------|
E|------------3----3-------------------|-----------------------------------------|-----------------------------------------|

E|-----------------------------|-----------------------------|---------------------------------|
B|-----------------------------|-3-----3---------------------|----------------------------7----|
G|-2-----2--------------X------|-2-----2--------------X------|----------------------------7----|
D|-2-----2--------------X------|-0-----0--------------X------|-7----7----7----7----7-----------|
A|-0-----0--------------14-----|------------3----3----16-----|---------------------------------|
E|------------3----3----12-----|----------------------14-----|---------------------------------|

E|-------------------------------|------------------------|-5---7-----------------------------------------------------|
B|-7---7--------------------8----|-8-----8----8----8------|---------8---7---5-------5---------------------------------|
G|-7---7----5---7------%---------|------------------------|---------------------7-------7---5-------7-------5---------|
D|---------------------%---------|------------------------|-------------------------------------7-------7--------7----|
A|-------------------------------|------------------------|-----------------------------------------------------------|
E|-------------------------------|------------------------|-----------------------------------------------------------|

E|---------------------------------|-----------------------------|-----------------------------------------------------|
B|-------5---------5---------------|-------X----5----------------|-----------------------------------------------------|
G|-------5---------5---------------|-------X----5----5----4------|-4----7---7---6---5---4------------------------------|
D|------------7---------5----5-----|-5---------------------------|--------------------------7---5----5---4-------------|
A|-7-------------------------------|-----------------------------|-------------------------------------------7---3-----|
E|---------------------------------|-----------------------------|-----------------------------------------------------|

E|-----------------------------|-------------------------|-----------------------------|
B|-----------------------------|-------------------------|-----------------------------|
G|-4-----4----5----5-----7-----|-7----9------11----%-----|-12----12---14---14----16----|
D|-----------------------------|-------------------%-----|-----------------------------|
A|-----------------------------|-------------------------|-----------------------------|
E|-----------------------------|-------------------------|-----------------------------|

E|---------------------------------|------------3----3-------------------|-------------------------------------|
B|-----------------20----22--0-----|------------3----3----3----3----3----|-3-----3----1----1----1--------------|
G|-%----17----%--------------------|-2-----2----0----0----0----0----0----|-2-----2----0----0----0----0---------|
D|-%----------%--------------------|-2-----2----0----0----0----0----0----|-0-----0-----------------------------|
A|---------------------------------|-0-----0-----------------------------|------------3----3----3----3----0----|
E|---------------------------------|------------3----3-------------------|-------------------------------------|

E|------------3----3-------------------|-----------------------------------------|-----------------------------------------|
B|------------3----3----3----3----3----|-----------3--------------3--------------|-3--------------3--------------3---------|
G|-2-----2----0----0----0----0----0----|-0----2----2----0----2----2----0----2----|-2----0----2----2----0----2----2----2----|
D|-2-----2----0----0----0----0----0----|-0--------------0--------------0---------|------0--------------0--------------0----|
A|-0-----0-----------------------------|-----------------------------------------|-----------------------------------------|
E|------------3----3-------------------|-----------------------------------------|-----------------------------------------|

E|------------3----3-------------------|-------------------------------------|------------3----3-------------------|
B|------------3----3----3----3----3----|-3-----3----1----1----1--------------|------------3----3----3----3----3----|
G|-2-----2----0----0----0----0----0----|-2-----2----0----0----0----0---------|-2-----2----0----0----0----0----0----|
D|-2-----2----0----0----0----0----0----|-0-----0-----------------------------|-2-----2----0----0----0----0----0----|
A|-0-----0-----------------------------|------------3----3----3----3----0----|-0-----0-----------------------------|
E|------------3----3-------------------|-------------------------------------|------------3----3-------------------|

E|-----------------------------------------|-----------------------------------------|
B|-----------3--------------3--------------|-3--------------3--------------3---------|
G|-0----2----2----0----2----2----0----2----|-2----0----2----2----0----2----2----2----|
D|-0--------------0--------------0---------|------0--------------0--------------0----|
A|-----------------------------------------|-----------------------------------------|
E|-----------------------------------------|-----------------------------------------|

E|---------|
B|---------|
G|-2-------|
D|-2-------|
A|-0-------|
E|---------|
AC-DC - Shot Down In Flames
AC-DC - Shot Down In Flames.gp4