AC-DC - Sink The Pink

AC-DC



Title: Sink The Pink
Album: 
Artist: Ac / Dc
Author: Jce

Track 1: Guitar
E|---------------------------------|-3-------|-3-------|-3-------|-3-------3----3----|
B|---------------------------------|-3-------|-3-------|-3-------|-3-------3----3----|
G|---------------------------------|-0-------|-0-------|-0-------|-0-------0----0----|
D|-3----------3--------------------|-0-------|-0-------|-0-------|-0-------0----0----|
A|-1-----5--------------------3----|-X-------|---------|---------|--------------X----|
E|-----------------1-----5---------|-3-------|-3-------|-3-------|-3-------3----3----|

E|-3-------|-3-------3----3----|-3-------|-3-------3----3----|-3-------|-3-------3----3----|
B|-3-------|-3-------3----3----|-3-------|-3-------3----3----|-3-------|-3-------3----3----|
G|-0-------|-0-------0----0----|-0-------|-0-------0----0----|-0-------|-0-------0----0----|
D|-0-------|-0-------0----0----|-0-------|-0-------0----0----|-0-------|-0-------0----0----|
A|---------|--------------X----|---------|--------------X----|---------|--------------X----|
E|-3-------|-3-------3----3----|-3-------|-3-------3----3----|-3-------|-3-------3----3----|

E|-3----3--------------------------|------------------3-----3----|-3----3--------------------------|
B|-3----3----1-----1----------1----|-1-----1----------3-----3----|-3----3----1-----1----------1----|
G|-0----0----0-----0-----%----0----|-0-----0----0-----0-----0----|-0----0----0-----0-----%----0----|
D|-0----0----3-----2-----%----2----|-3-----2----0-----0-----0----|-0----0----3-----2-----%----2----|
A|------X----3-----3----------3----|-3-----3----X-----X-----X----|------X----3-----3----------3----|
E|-3----3--------------------------|------------3-----3-----3----|-3----3--------------------------|

E|-------------------3----|-3----3--------------------------|-------------------3----|
B|-1-----1-----------3----|-3----3----1-----1----------1----|-1-----1-----------3----|
G|-0-----0----0------0----|-0----0----0-----0-----%----0----|-0-----0----0------0----|
D|-3-----2----0------0----|-0----0----3-----2-----%----2----|-3-----2----0------0----|
A|-3-----3----X------X----|------X----3-----3----------3----|-3-----3----X------X----|
E|------------3------3----|-3----3--------------------------|------------3------3----|

E|-3----3--------------------------|------------------------|---------------------------------|
B|-3----3----1-----1----------1----|-1-----1----------------|---------------------------------|
G|-0----0----0-----0-----%----0----|-0-----0----0------0----|-0----0----0-----0-----%----0----|
D|-0----0----3-----2-----%----2----|-3-----2----0------0----|-0----0----3-----2-----%----2----|
A|------X----3-----3----------3----|-3-----3----X------X----|------X----3-----3----------3----|
E|-3----3--------------------------|------------3------3----|-3----3--------------------------|

E|-----------------------------|---------------------------------|-----------------------------|
B|-----------------------------|---------------------------------|-----------------------------|
G|-0-----0----0------0----0----|-0----0----0-----0-----%----0----|-0-----0----0------0----0----|
D|-3-----2----3------2----0----|-0----0----3-----2-----%----2----|-3-----2----3------2----0----|
A|-3-----3----3------3----X----|------X----3-----3----------3----|-3-----3----3------3----X----|
E|------------------------3----|-3----3--------------------------|------------------------3----|

E|---------------------------------|-----------------------------|---------------------------------|
B|---------------------------------|-----------------------------|---------------------------------|
G|-0----0----0-----0-----%----0----|-0-----0----0------0----0----|-0----0----0-----0-----%----0----|
D|-0----0----3-----2-----%----2----|-3-----2----3------2----0----|-0----0----3-----2-----%----2----|
A|------X----3-----3----------3----|-3-----3----3------3----X----|------X----3-----3----------3----|
E|-3----3--------------------------|------------------------3----|-3----3--------------------------|

E|-----------------------------|-------------------------|---------------------------------|
B|------------------------1----|-1----------------1------|------------1-----1---------1----|
G|-0-----0----0------0----0----|-0-----0-----%----0------|-0-----%----0-----0----0----0----|
D|-3-----2----3------2----X----|-------0-----%----X------|-0-----%----X-----X----0----X----|
A|-3-----3----3------3----3----|-3-----2----------3------|-2----------3-----3----3----3----|
E|-----------------------------|-------------------------|---------------------------------|

E|-------------------------|---------------------------------|----------------------------|
B|-1----------------1------|------------1-----1---------3----|-3------3--------------1----|
G|-0-----0-----%----0------|-0-----%----0-----0----0----2----|-2------2--------------0----|
D|-------0-----%----X------|-0-----%----X-----X----0----0----|-0------0--------------X----|
A|-3-----2----------3------|-2----------3-----3----2---------|-------------3----2----3----|
E|-------------------------|---------------------------------|----------------------------|

E|----------------------------|----------------------------|-----------------------------------------|
B|-1------1--------------3----|-3------3-------------------|-----------------------------------------|
G|-0------0--------------2----|-2------2--------------3----|-3----3----3----3----3----3----3----3----|
D|-----------------------0----|-0------0--------------3----|-3----3----3----3----3----3----3----3----|
A|-3------3----3----2---------|-------------3----2----1----|-1----1----1----1----1----1----1----1----|
E|----------------------------|----------------------------|-----------------------------------------|

E|--------------------------------3----|-3----3--------------------------|------------------3-----3----|
B|--------------------------------3----|-3----3----1-----1----------1----|-1-----1----------3-----3----|
G|--------------------------------0----|-0----0----0-----0-----%----0----|-0-----0----0-----0-----0----|
D|-----------3--------------------0----|-0----0----3-----2-----%----2----|-3-----2----0-----0-----0----|
A|-1----5--------------------3----X----|------X----3-----3----------3----|-3-----3----X-----X-----X----|
E|----------------1-----5---------3----|-3----3--------------------------|------------3-----3-----3----|

E|-3----3--------------------------|------------------3-----3----|-3----3--------------------------|
B|-3----3----1-----1----------1----|-1-----1----------3-----3----|-3----3----1-----1----------1----|
G|-0----0----0-----0-----%----0----|-0-----0----0-----0-----0----|-0----0----0-----0-----%----0----|
D|-0----0----3-----2-----%----2----|-3-----2----0-----0-----0----|-0----0----3-----2-----%----2----|
A|------X----3-----3----------3----|-3-----3----X-----X-----X----|------X----3-----3----------3----|
E|-3----3--------------------------|------------3-----3-----3----|-3----3--------------------------|

E|------------------3-----3----|-3----3--------------------------|------------------3-----3----|
B|-1-----1----------3-----3----|-3----3----1-----1----------1----|-1-----1----------3-----3----|
G|-0-----0----0-----0-----0----|-0----0----0-----0-----%----0----|-0-----0----0-----0-----0----|
D|-3-----2----0-----0-----0----|-0----0----3-----2-----%----2----|-3-----2----0-----0-----0----|
A|-3-----3----X-----X-----X----|------X----3-----3----------3----|-3-----3----X-----X-----X----|
E|------------3-----3-----3----|-3----3--------------------------|------------3-----3-----3----|

E|-3----3--------------------------|------------------------|---------------------------------|
B|-3----3----1-----1----------1----|-1-----1----------------|---------------------------------|
G|-0----0----0-----0-----%----0----|-0-----0----0------0----|-0----0----5-----5-----%----0----|
D|-0----0----3-----2-----%----2----|-3-----2----0------0----|-0----0----5-----5-----%----0----|
A|------X----3-----3----------3----|-3-----3----X------X----|------X----3-----3----------X----|
E|-3----3--------------------------|------------3------3----|-3----3---------------------3----|

E|---------------------------------|------3--------------------------|-------------------3----|
B|---------------------------------|------3----1-----1----------1----|-1-----1-----------3----|
G|-0----0----5-----5-----%----0----|-0----0----0-----0-----%----0----|-0-----0----0------0----|
D|-0----0----5-----5-----%----0----|-0----0----3-----2-----%----2----|-3-----2----0------0----|
A|------X----3-----3----------X----|------X----3-----3----------3----|-3-----3----X------X----|
E|-3----3---------------------3----|-3----3--------------------------|------------3------3----|

E|-3----3---------------6----3-----------------------------|--------------3----|---------------------------------|
B|-3----3----1----------6----3----3----6----5----3---------|--------------3----|---------------------------------|
G|-0----0----0-----%--------------3----7----5----3---------|---------%----0----|-%----0----0-----0-----%----0----|
D|-0----0----3-----%----------------------------------5----|-5-------%----0----|-%----0----3-----2-----%----2----|
A|------X----3---------------------------------------------|--------------X----|------X----3-----3----------3----|
E|-3----3--------------------------------------------------|--------------3----|------3--------------------------|

E|-----------------------------|---------------------------------|-----------------------------|
B|-----------------------------|---------------------------------|-----------------------------|
G|-0-----0----0------0----0----|-0----0----0-----0-----%----0----|-0-----0----0------0----0----|
D|-3-----2----3------2----0----|-0----0----3-----2-----%----2----|-3-----2----3------2----0----|
A|-3-----3----3------3----X----|------X----3-----3----------3----|-3-----3----3------3----X----|
E|------------------------3----|-3----3--------------------------|------------------------3----|

E|---------------------------------|-----------------------------|---------------------------------|
B|---------------------------------|-----------------------------|---------------------------------|
G|-0----0----0-----0-----%----0----|-0-----0----0------0----0----|-0----0----0-----0-----%----0----|
D|-0----0----3-----2-----%----2----|-3-----2----3------2----0----|-0----0----3-----2-----%----2----|
A|------X----3-----3----------3----|-3-----3----3------3----X----|------X----3-----3----------3----|
E|-3----3--------------------------|------------------------3----|-3----3--------------------------|

E|-----------------------------|-------------------------|---------------------------------|
B|------------------------1----|-1----------------1------|------------1-----1---------1----|
G|-0-----0----0------0----0----|-0-----0-----%----0------|-0-----%----0-----0----0----0----|
D|-3-----2----3------2----X----|-------0-----%----X------|-0-----%----X-----X----0----X----|
A|-3-----3----3------3----3----|-3-----2----------3------|-2----------3-----3----3----3----|
E|-----------------------------|-------------------------|---------------------------------|

E|-------------------------|---------------------------------|----------------------------|
B|-1----------------1------|------------1-----1---------3----|-3------3--------------1----|
G|-0-----0-----%----0------|-0-----%----0-----0----0----2----|-2------2--------------0----|
D|-------0-----%----X------|-0-----%----X-----X----0----0----|-0------0--------------X----|
A|-3-----2----------3------|-2----------3-----3----2---------|-------------3----2----3----|
E|-------------------------|---------------------------------|----------------------------|

E|----------------------------|----------------------------|-----------------------------------------|
B|-1------1--------------3----|-3------3-------------------|-----------------------------------------|
G|-0------0--------------2----|-2------2--------------3----|-3----3----3----3----3----3----3----3----|
D|-----------------------0----|-0------0--------------3----|-3----3----3----3----3----3----3----3----|
A|-3------3----3----2---------|-------------3----2----1----|-1----1----1----1----1----1----1----1----|
E|----------------------------|----------------------------|-----------------------------------------|

E|--------------------------------3----|-3----3--------------------------|-------------------3----|
B|--------------------------------3----|-3----3----1-----1----------1----|-1-----1-----------3----|
G|--------------------------------0----|-0----0----0-----0-----%----0----|-0-----0----0------0----|
D|-----------3--------------------0----|-0----0----3-----2-----%----2----|-3-----2----0------0----|
A|-1----5--------------------3----X----|------X----3-----3----------3----|-3-----3----X------X----|
E|----------------1-----5---------3----|-3----3--------------------------|------------3------3----|

E|-3----3--------------------------|-------------------3----|-3----3--------------------------|
B|-3----3----1-----1----------1----|-1-----1-----------3----|-3----3----1-----1----------1----|
G|-0----0----0-----0-----%----0----|-0-----0----0------0----|-0----0----0-----0-----%----0----|
D|-0----0----3-----2-----%----2----|-3-----2----0------0----|-0----0----3-----2-----%----2----|
A|------X----3-----3----------3----|-3-----3----X------X----|------X----3-----3----------3----|
E|-3----3--------------------------|------------3------3----|-3----3--------------------------|

E|-------------------3----|-3----3--------------------------|------------------------|
B|-1-----1-----------3----|-3----3----1-----1----------1----|-1-----1----------------|
G|-0-----0----0------0----|-0----0----0-----0-----%----0----|-0-----0----0------0----|
D|-3-----2----0------0----|-0----0----3-----2-----%----2----|-3-----2----0------0----|
A|-3-----3----X------X----|------X----3-----3----------3----|-3-----3----X------X----|
E|------------3------3----|-3----3--------------------------|------------3------3----|

E|---------------------------------|---------------------------------|---------------------------------|
B|---------------------------------|---------------------------------|---------------------------------|
G|-0----0----5-----5-----%----0----|-0----0----5-----5-----%----0----|-0----0----5-----5-----%----0----|
D|-0----0----5-----5-----%----0----|-0----0----5-----5-----%----0----|-0----0----5-----5-----%----0----|
A|------X----3-----3----------X----|------X----3-----3----------X----|------X----3-----3----------X----|
E|-3----3---------------------3----|-3----3---------------------3----|-3----3---------------------3----|

E|---------------------------------|------3--------------------------|-------------------3----|
B|---------------------------------|------3----1-----1----------1----|-1-----1-----------3----|
G|-0----0----5-----5-----%----0----|-0----0----0-----0-----%----0----|-0-----0----0------0----|
D|-0----0----5-----5-----%----0----|-0----0----3-----2-----%----2----|-3-----2----0------0----|
A|------X----3-----3----------X----|------X----3-----3----------3----|-3-----3----X------X----|
E|-3----3---------------------3----|-3----3--------------------------|------------3------3----|

E|-3----3---------------6----3-----------------------------|---------|---------|---------|
B|-3----3----1----------6----3----3----6----5----3---------|---------|---------|---------|
G|-0----0----0-----%--------------3----7----5----3---------|---------|---------|-%-------|
D|-0----0----3-----%----------------------------------5----|-5-------|-5-------|-%-------|
A|------X----3---------------------------------------------|---------|---------|---------|
E|-3----3--------------------------------------------------|---------|---------|---------|

E|---------|---------|-------------------|---------|-------------------|---------|-3-----------------|
B|---------|---------|-------------------|---------|--------------3----|-3-------|-3------------5----|
G|-%-------|-%-------|-%-------%---------|---------|--------------0----|-0-------|-0-------%----5----|
D|-%-------|-%-------|-%-------%----3----|-3-------|-3-------3----0----|-0-------|-0-------%---------|
A|---------|---------|--------------3----|-3-------|-3-------3----X----|---------|-------------------|
E|---------|---------|--------------1----|-1-------|-1-------1----3----|-3-------|-3-----------------|

E|---------------------------------|---------------------------------|---------------------------------|
B|-5----5----3----------5-----5----|-3----------5-----5----3----5----|-5----5----3----------5-----5----|
G|-5----5----4-----%----5-----5----|-4-----%----5-----5----4----5----|-5----5----4-----%----5-----5----|
D|-----------------%---------------|-------%-------------------------|-----------------%---------------|
A|---------------------------------|---------------------------------|---------------------------------|
E|---------------------------------|---------------------------------|---------------------------------|

E|---------------------------------|---------------------------------|---------------------------------|
B|-3----------5-----5----3----5----|-5----5----3----------5-----5----|-3----------5-----5----3----5----|
G|-4-----%----5-----5----4----5----|-5----5----4-----%----5-----5----|-4-----%----5-----5----4----5----|
D|-------%-------------------------|-----------------%---------------|-------%-------------------------|
A|---------------------------------|---------------------------------|---------------------------------|
E|---------------------------------|---------------------------------|---------------------------------|

E|---------------------------------|---------------------------------|-------------------------|
B|-5----5----3----------5-----5----|-3----------5-----5----3----5----|-5----------------1------|
G|-5----5----4-----%----5-----5----|-4-----%----5-----5----4----5----|-5-----0-----%----0------|
D|-----------------%---------------|-------%-------------------------|-------0-----%----X------|
A|---------------------------------|---------------------------------|-------2----------3------|
E|---------------------------------|---------------------------------|-------------------------|

E|----------------------------|----------------------------|----------------------------|
B|-1------1--------------1----|-1------1--------------3----|-3------3-------------------|
G|-0------0--------------0----|-0------0--------------2----|-2------2--------------3----|
D|-----------------------X----|-----------------------0----|-0------0--------------3----|
A|-3------3----3----2----3----|-3------3----3----2---------|-------------3----2----1----|
E|----------------------------|----------------------------|----------------------------|

E|-----------------------------------------|------3--------------------------|-------------------3----|
B|-----------------------------------------|------3----1-----1----------1----|-1-----1-----------3----|
G|-3----3----3----3----3----3----3----3----|-3----0----0-----0-----%----0----|-0-----0----0------0----|
D|-3----3----3----3----3----3----3----3----|-3----0----3-----2-----%----2----|-3-----2----0------0----|
A|-1----1----1----1----1----1----1----1----|------X----3-----3----------3----|-3-----3----X------X----|
E|-----------------------------------------|------3--------------------------|------------3------3----|

E|-3----3--------------------------|-------------------3----|-3----3--------------------------|
B|-3----3----1-----1----------1----|-1-----1-----------3----|-3----3----1-----1----------1----|
G|-0----0----0-----0-----%----0----|-0-----0----0------0----|-0----0----0-----0-----%----0----|
D|-0----0----3-----2-----%----2----|-3-----2----0------0----|-0----0----3-----2-----%----2----|
A|------X----3-----3----------3----|-3-----3----X------X----|------X----3-----3----------3----|
E|-3----3--------------------------|------------3------3----|-3----3--------------------------|

E|-------------------3----|-3----3--------------------------|-------------------3----|
B|-1-----1-----------3----|-3----3----1-----1----------1----|-1-----1-----------3----|
G|-0-----0----0------0----|-0----0----0-----0-----%----0----|-0-----0----0------0----|
D|-3-----2----0------0----|-0----0----3-----2-----%----2----|-3-----2----0------0----|
A|-3-----3----X------X----|------X----3-----3----------3----|-3-----3----X------X----|
E|------------3------3----|-3----3--------------------------|------------3------3----|

E|-3----3--------------------------|-------------------3----|-3----3--------------------------|
B|-3----3----1-----1----------1----|-1-----1-----------3----|-3----3----1-----1----------1----|
G|-0----0----0-----0-----%----0----|-0-----0----0------0----|-0----0----0-----0-----%----0----|
D|-0----0----3-----2-----%----2----|-3-----2----0------0----|-0----0----3-----2-----%----2----|
A|------X----3-----3----------3----|-3-----3----X------X----|------X----3-----3----------3----|
E|-3----3--------------------------|------------3------3----|-3----3--------------------------|

E|-------------------3----|--------6----3----------|----------------------6----3---------|
B|-1-----1-----------3----|--------6----3----3-----|-6----5----3----------6----3----3----|
G|-0-----0----0------0----|-%----------------3-----|-7----5----3----0---------------3----|
D|-3-----2----0------0----|-%----------------------|-------------------------------------|
A|-3-----3----X------X----|------------------------|-------------------------------------|
E|------------3------3----|------------------------|-------------------------------------|

E|----------------------6----3------------------------3----|-3-------|-3------3----3----------|
B|-6----5----3----------6----3----3----6----5----3----3----|-3-------|-3------3----3----------|
G|-7----5----3----0---------------3----7----5----3----0----|-0-------|-0------0----0-----%----|
D|----------------------------------------------------0----|-0-------|-0------0----0-----%----|
A|----------------------------------------------------X----|---------|-------------X----------|
E|----------------------------------------------------3----|-3-------|-3------3----3----------|

E|---------|
B|---------|
G|-%-------|
D|-%-------|
A|---------|
E|---------|
AC-DC - Sink The Pink
AC-DC - Sink The Pink.gp4