AC-DC - Sink The Pink (2)

AC-DC



Title: Sink The Pink
Album: 
Artist: AC/DC
Author: Evander

Track 1: Lead Guitar
E|---------------------------------------|---------|-------------------8----|-10---10---8-----------------------------|
B|---------------------------------------|---------|--------------12--------|----------------12---10---10---8----10---|
G|---------------------------------------|---------|--------%---------------|-----------------------------------------|
D|---------------3-----------------------|-5-------|-5------%---------------|-----------------------------------------|
A|-1-----3---5----------------------3----|-5-------|-5----------------------|-----------------------------------------|
E|--------------------1-----3---5--------|-3-------|-3----------------------|-----------------------------------------|

E|-----------------------------------------|-----------------------------------------|
B|-------------------------------8----10---|-8----8----8----8----8----8----8----8----|
G|-10---10---10---10---10---10-------------|-----------------------------------------|
D|-----------------------------------------|-----------------------------------------|
A|-----------------------------------------|-----------------------------------------|
E|-----------------------------------------|-----------------------------------------|

E|------------------------------------8----|-10---10---8-----------------------------|
B|-8----8----8----8----8----8----12--------|----------------12---10---10---8----10---|
G|-----------------------------------------|-----------------------------------------|
D|-----------------------------------------|-----------------------------------------|
A|-----------------------------------------|-----------------------------------------|
E|-----------------------------------------|-----------------------------------------|

E|-----------------------------------------|-----------------------------------------|
B|-------------------------------8----10---|-8----8----8----8----8----8----8----8----|
G|-10---10---10---10---10---10-------------|-----------------------------------------|
D|-----------------------------------------|-----------------------------------------|
A|-----------------------------------------|-----------------------------------------|
E|-----------------------------------------|-----------------------------------------|

E|-----------------------------------------|---------------------------------|-------------------------------------|
B|-8----8----8----8----8----8----8---------|---------------------------------|-------------------------------------|
G|------------------------------------7----|-7----7----5-----5----%-----5----|-5----%----5----7-----7----7----7----|
D|------------------------------------5----|-5----5----3-----2----%-----2----|-3----%----2----5-----5----5----5----|
A|-----------------------------------------|---------------------------------|-------------------------------------|
E|-----------------------------------------|---------------------------------|-------------------------------------|

E|---------------------------------|-------------------------------------|---------------------------------|
B|---------------------------------|-------------------------------------|---------------------------------|
G|-7----7----5-----5----%-----5----|-5----%----5----7-----7----7----7----|-7----7----5-----5----%-----5----|
D|-5----5----3-----2----%-----2----|-3----%----2----5-----5----5----5----|-5----5----3-----2----%-----2----|
A|---------------------------------|-------------------------------------|---------------------------------|
E|---------------------------------|-------------------------------------|---------------------------------|

E|-------------------------------------|---------------------------------|-------------------------------------|
B|-------------------------------------|---------------------------------|-------------------------------------|
G|-5----%----5----7-----7----7----7----|-7----7----5-----5----%-----5----|-5----%----5----7-----7----7----7----|
D|-3----%----2----5-----5----5----5----|-5----5----3-----2----%-----2----|-3----%----2----5-----5----5----5----|
A|-------------------------------------|---------------------------------|-------------------------------------|
E|-------------------------------------|---------------------------------|-------------------------------------|

E|---------------------------------|-------------------------------------|---------------------------------|
B|---------------------------------|-------------------------------------|---------------------------------|
G|-7----7----5-----5----%-----5----|-5----%----5----5-----5----5----7----|-7----7----5-----5----%-----5----|
D|-5----5----3-----2----%-----2----|-3----%----2----3-----3----2----5----|-5----5----3-----2----%-----2----|
A|---------------------------------|-------------------------------------|---------------------------------|
E|---------------------------------|-------------------------------------|---------------------------------|

E|---------------------------------|---------------------------------|-------------------------------------|
B|---------------------------------|---------------------------------|-------------------------------------|
G|-5----%----5----7-----7-----7----|-7----7----5-----5----%-----5----|-5----%----5----5-----5----5----7----|
D|-3----%----2----5-----5-----5----|-5----5----3-----2----%-----2----|-3----%----2----3-----3----2----5----|
A|---------------------------------|---------------------------------|-------------------------------------|
E|---------------------------------|---------------------------------|-------------------------------------|

E|---------------------------------|---------------------------------|---------------------------------|
B|---------------------------------|---------------------------------|---------------------------------|
G|-7----7----5-----5----%-----5----|-5----%----5----7-----7-----5----|-5----5---------%-----5-----5----|
D|-5----5----3-----2----%-----2----|-3----%----2----5-----5-----5----|-5----5----5----%-----5-----5----|
A|---------------------------------|----------------------------3----|-3----3----5----------3-----3----|
E|---------------------------------|---------------------------------|-----------3---------------------|

E|---------------------------------|---------------------------------|---------------------------------|
B|---------------------------------|---------------------------------|---------------------------------|
G|------%-----5-----5---------5----|-5----5---------%-----5-----5----|------%-----5-----5---------7----|
D|-5----%-----5-----5----5----5----|-5----5----5----%-----5-----5----|-5----%-----5-----5----5----7----|
A|-5----------3-----3----5----3----|-3----3----5----------3-----3----|-5----------3-----3----5----5----|
E|-3---------------------3---------|-----------3---------------------|-3---------------------3---------|

E|----------------------------|----------------------------|----------------------------|
B|----------------------------|----------------------------|----------------------------|
G|-7------7-------------------|-----------------------7----|-7------7--------------3----|
D|-7------7----5----5----5----|-5------5----5----5----7----|-7------7----5----5----3----|
A|-5------5----3----2----3----|-3------3----3----2----5----|-5------5----3----2----1----|
E|----------------------------|----------------------------|----------------------------|

E|-----------------------------------------|-------------------------------------------|
B|-----------------------------------------|-------------------------------------------|
G|-3----3----3----3----3----3----3----3----|--------------------------------------7----|
D|-3----3----3----3----3----3----3----3----|--------------3-----------------------5----|
A|-1----1----1----1----1----1----1----1----|-1----3---5----------------------3---------|
E|-----------------------------------------|-------------------1-----3---5-------------|

E|---------------------------------|-------------------------------------|---------------------------------|
B|---------------------------------|-------------------------------------|---------------------------------|
G|-7----7----5-----5----%-----5----|-5----%----5----7-----7----7----7----|-7----7----5-----5----%-----5----|
D|-5----5----3-----2----%-----2----|-3----%----2----5-----5----5----5----|-5----5----3-----2----%-----2----|
A|---------------------------------|-------------------------------------|---------------------------------|
E|---------------------------------|-------------------------------------|---------------------------------|

E|-------------------------------------|---------------------------------|-------------------------------------|
B|-------------------------------------|---------------------------------|-------------------------------------|
G|-5----%----5----7-----7----7----7----|-7----7----5-----5----%-----5----|-5----%----5----7-----7----7----7----|
D|-3----%----2----5-----5----5----5----|-5----5----3-----2----%-----2----|-3----%----2----5-----5----5----5----|
A|-------------------------------------|---------------------------------|-------------------------------------|
E|-------------------------------------|---------------------------------|-------------------------------------|

E|---------------------------------|-------------------------------------|-------------------------------------|
B|---------------------------------|-------------------------------------|-------------------------------------|
G|-7----7----5-----5----%-----5----|-5----%----5----7-----7----7---------|-----------5----%----5----%----------|
D|-5----5----3-----2----%-----2----|-3----%----2----5-----5----5----5----|-5----5----3----%----2----%-----5----|
A|---------------------------------|--------------------------------5----|-5----5-------------------------5----|
E|---------------------------------|--------------------------------3----|-3----3-------------------------3----|

E|-------------------------------------|-------------------------------------|-------------------------------------|
B|-------------------------------------|-------------------------------------|-------------------------------------|
G|-----------5----%----5----%----------|-----------5----%----5----%----------|-----------5----%----5----%-----7----|
D|-5----5----3----%----2----%-----5----|-5----5----5----%----5----%-----5----|-5----5----5----%----5----%-----5----|
A|-5----5-------------------------5----|-5----5----3---------3----------5----|-5----5----3---------3---------------|
E|-3----3-------------------------3----|-3----3-------------------------3----|-3----3------------------------------|

E|---------------------------------|-------------------------------------|--------------------------6----3-----------------------------|
B|---------------------------------|-------------------------------------|------------------------------------3------------------------|
G|-7----7----5-----5----%-----5----|-5----%----5----7-----7----7----7----|-7----7----5----%----5-------------------6----5----3---------|
D|-5----5----3-----2----%-----2----|-3----%----2----5-----5----5----5----|-5----5----3----%----2----------------------------------5----|
A|---------------------------------|-------------------------------------|-------------------------------------------------------------|
E|---------------------------------|-------------------------------------|-------------------------------------------------------------|

E|-------------------------------|---------------------------------|-------------------------------------|
B|-------------------------------|---------------------------------|-------------------------------------|
G|--------------------------7----|-7----7----5-----5----%-----5----|-5----%----5----5-----5----5----7----|
D|-5------5------5-----5----5----|-5----5----3-----2----%-----2----|-3----%----2----3-----3----2----5----|
A|-------------------------------|---------------------------------|-------------------------------------|
E|-------------------------------|---------------------------------|-------------------------------------|

E|---------------------------------|---------------------------------|---------------------------------|
B|---------------------------------|---------------------------------|---------------------------------|
G|-7----7----5-----5----%-----5----|-5----%----5----7-----7-----7----|-7----7----5-----5----%-----5----|
D|-5----5----3-----2----%-----2----|-3----%----2----5-----5-----5----|-5----5----3-----2----%-----2----|
A|---------------------------------|---------------------------------|---------------------------------|
E|---------------------------------|---------------------------------|---------------------------------|

E|-------------------------------------|---------------------------------|---------------------------------|
B|-------------------------------------|---------------------------------|---------------------------------|
G|-5----%----5----5-----5----5----7----|-7----7----5-----5----%-----5----|-5----%----5----7-----7-----5----|
D|-3----%----2----3-----3----2----5----|-5----5----3-----2----%-----2----|-3----%----2----5-----5-----5----|
A|-------------------------------------|---------------------------------|----------------------------3----|
E|-------------------------------------|---------------------------------|---------------------------------|

E|---------------------------------|---------------------------------|---------------------------------|
B|---------------------------------|---------------------------------|---------------------------------|
G|-5----5---------%-----5-----5----|------%-----5-----5---------5----|-5----5---------%-----5-----5----|
D|-5----5----5----%-----5-----5----|-5----%-----5-----5----5----5----|-5----5----5----%-----5-----5----|
A|-3----3----5----------3-----3----|-5----------3-----3----5----3----|-3----3----5----------3-----3----|
E|-----------3---------------------|-3---------------------3---------|-----------3---------------------|

E|---------------------------------|----------------------------|----------------------------|
B|---------------------------------|----------------------------|----------------------------|
G|------%-----5-----5---------7----|-7------7-------------------|-----------------------7----|
D|-5----%-----5-----5----5----7----|-7------7----5----5----5----|-5------5----5----5----7----|
A|-5----------3-----3----5----5----|-5------5----3----2----3----|-3------3----3----2----5----|
E|-3---------------------3---------|----------------------------|----------------------------|

E|----------------------------|-----------------------------------------|-------------------------------------------|
B|----------------------------|-----------------------------------------|-------------------------------------------|
G|-7------7--------------3----|-3----3----3----3----3----3----3----3----|--------------------------------------7----|
D|-7------7----5----5----3----|-3----3----3----3----3----3----3----3----|--------------3-----------------------5----|
A|-5------5----3----2----1----|-1----1----1----1----1----1----1----1----|-1----3---5----------------------3---------|
E|----------------------------|-----------------------------------------|-------------------1-----3---5-------------|

E|---------------------------------|-------------------------------------|---------------------------------|
B|-3-------------------------------|-------------------------------------|---------------------------------|
G|-7----7----5-----5----%-----5----|-5----%----5----7-----7----7----7----|-7----7----5-----5----%-----5----|
D|-5----5----3-----2----%-----2----|-3----%----2----5-----5----5----5----|-5----5----3-----2----%-----2----|
A|---------------------------------|-------------------------------------|---------------------------------|
E|---------------------------------|-------------------------------------|---------------------------------|

E|-------------------------------------|---------------------------------|-------------------------------------|
B|-------------------------------------|---------------------------------|-------------------------------------|
G|-5----%----5----7-----7----7----7----|-7----7----5-----5----%-----5----|-5----%----5----7-----7----7----7----|
D|-3----%----2----5-----5----5----5----|-5----5----3-----2----%-----2----|-3----%----2----5-----5----5----5----|
A|-------------------------------------|---------------------------------|-------------------------------------|
E|-------------------------------------|---------------------------------|-------------------------------------|

E|---------------------------------|-------------------------------------|-------------------------------------|
B|---------------------------------|-------------------------------------|-------------------------------------|
G|-7----7----5-----5----%-----5----|-5----%----5----7-----7----7---------|-----------5----%----5----%----------|
D|-5----5----3-----2----%-----2----|-3----%----2----5-----5----5----5----|-5----5----3----%----2----%-----5----|
A|---------------------------------|--------------------------------5----|-5----5-------------------------5----|
E|---------------------------------|--------------------------------3----|-3----3-------------------------3----|

E|-------------------------------------|-------------------------------------|-------------------------------------|
B|-------------------------------------|-------------------------------------|-------------------------------------|
G|-----------5----%----5----%----------|-----------5----%----5----%----------|-----------5----%----5----%-----7----|
D|-5----5----3----%----2----%-----5----|-5----5----5----%----5----%-----5----|-5----5----5----%----5----%-----5----|
A|-5----5-------------------------5----|-5----5----3---------3----------5----|-5----5----3---------3---------------|
E|-3----3-------------------------3----|-3----3-------------------------3----|-3----3------------------------------|

E|---------------------------------|-------------------------------------|--------------------------6----3-----------------------------|
B|---------------------------------|-------------------------------------|------------------------------------3------------------------|
G|-7----7----5-----5----%-----5----|-5----%----5----7-----7----7----7----|-7----7----5----%----5-------------------6----5----3---------|
D|-5----5----3-----2----%-----2----|-3----%----2----5-----5----5----5----|-5----5----3----%----2----------------------------------5----|
A|---------------------------------|-------------------------------------|-------------------------------------------------------------|
E|---------------------------------|-------------------------------------|-------------------------------------------------------------|

E|--------------------------8----|-10---10---8-----------------------------|-----------------------------------------|
B|---------------------12--------|----------------12---10---10---8----10---|-------------------------------8----10---|
G|-------------------------------|-----------------------------------------|-10---10---10---10---10---10-------------|
D|-5------5------5-----5---------|-----------------------------------------|-----------------------------------------|
A|-------------------------------|-----------------------------------------|-----------------------------------------|
E|-------------------------------|-----------------------------------------|-----------------------------------------|

E|-----------------------------------------|------------------------------------8----|
B|-8----8----8----8----8----8----8----8----|-8----8----8----8----8----8----12--------|
G|-----------------------------------------|-----------------------------------------|
D|-----------------------------------------|-----------------------------------------|
A|-----------------------------------------|-----------------------------------------|
E|-----------------------------------------|-----------------------------------------|

E|-10---10---8-----------------------------|-----------------------------------------|
B|----------------12---10---10---8----10---|-------------------------------8----10---|
G|-----------------------------------------|-10---10---10---10---10---10-------------|
D|-----------------------------------------|-----------------------------------------|
A|-----------------------------------------|-----------------------------------------|
E|-----------------------------------------|-----------------------------------------|

E|-----------------------------------------|-----------------------------------------|
B|-8----8----8----8----8----8----8----8----|-8----8----8----8----8----8----8---------|
G|-----------------------------------------|------------------------------------5----|
D|-----------------------------------------|-----------------------------------------|
A|-----------------------------------------|-----------------------------------------|
E|-----------------------------------------|-----------------------------------------|

E|---------------------------------------|-----------------------------|---------------------------------------|
B|---------------------------------------|------------6-----6----------|---------------------------------------|
G|-5----5---5---4-----4----5-----5---5---|-4-----%----------------5----|-5----5---5---4-----4----5-----5---5---|
D|---------------------------------------|-------%---------------------|---------------------------------------|
A|---------------------------------------|-----------------------------|---------------------------------------|
E|---------------------------------------|-----------------------------|---------------------------------------|

E|-----------------------------|---------------------------------------|-----------------------------|
B|-----------------------------|---------------------------------------|------------6-----6----------|
G|-4-----%----5-----5-----5----|-5----5---5---4-----4----5-----5---5---|-4-----%----------------5----|
D|-------%---------------------|---------------------------------------|-------%---------------------|
A|-----------------------------|---------------------------------------|-----------------------------|
E|-----------------------------|---------------------------------------|-----------------------------|

E|---------------------------------------|-----------------------------|------------------------13---|
B|---------------------------------------|------------------------13---|-13----13----13----11--------|
G|-5----5---5---4-----4----5-----5---5---|-4-----%----5-----5----------|-----------------------------|
D|---------------------------------------|-------%---------------------|-----------------------------|
A|---------------------------------------|-----------------------------|-----------------------------|
E|---------------------------------------|-----------------------------|-----------------------------|

E|-13----13----13----10--------|------------------------------------|------------------------------------------|
B|------------------------13---|-13----13----13---11-----------11---|-11----11----11---11--8---11--8---11--11--|
G|-----------------------------|----------------------12--10--------|------------------------------------------|
D|-----------------------------|------------------------------------|------------------------------------------|
A|-----------------------------|------------------------------------|------------------------------------------|
E|-----------------------------|------------------------------------|------------------------------------------|

E|---------------------------------|---------------------------------|-------------------------------------|
B|-11----11---11----11-------------|---------------------------------|-------------------------------------|
G|-----------------------%----7----|-7----7----5-----5----%-----5----|-5----%----5----7-----7----7----7----|
D|-----------------------%----5----|-5----5----3-----2----%-----2----|-3----%----2----5-----5----5----5----|
A|---------------------------------|---------------------------------|-------------------------------------|
E|---------------------------------|---------------------------------|-------------------------------------|

E|---------------------------------|-------------------------------------|---------------------------------|
B|---------------------------------|-------------------------------------|---------------------------------|
G|-7----7----5-----5----%-----5----|-5----%----5----7-----7----7----7----|-7----7----5-----5----%-----5----|
D|-5----5----3-----2----%-----2----|-3----%----2----5-----5----5----5----|-5----5----3-----2----%-----2----|
A|---------------------------------|-------------------------------------|---------------------------------|
E|---------------------------------|-------------------------------------|---------------------------------|

E|-------------------------------------|---------------------------------|-------------------------------------|
B|-------------------------------------|---------------------------------|-------------------------------------|
G|-5----%----5----7-----7----7----7----|-7----7----5-----5----%-----5----|-5----%----5----7-----7----7---------|
D|-3----%----2----5-----5----5----5----|-5----5----3-----2----%-----2----|-3----%----2----5-----5----5----5----|
A|-------------------------------------|---------------------------------|--------------------------------5----|
E|-------------------------------------|---------------------------------|--------------------------------3----|

E|-------------------------------------|-------------------------------------|-------------------------------------|
B|-------------------------------------|-------------------------------------|-------------------------------------|
G|-----------5----%----5----%----------|-----------5----%----5----%----------|-----------5----%----5----%----------|
D|-5----5----3----%----2----%-----5----|-5----5----3----%----2----%-----5----|-5----5----5----%----5----%-----5----|
A|-5----5-------------------------5----|-5----5-------------------------5----|-5----5----3---------3----------5----|
E|-3----3-------------------------3----|-3----3-------------------------3----|-3----3-------------------------3----|

E|-------------------------------------|---------------------------------|-------------------------------------|
B|-------------------------------------|---------------------------------|-------------------------------------|
G|-----------5----%----5----%-----7----|-7----7----5-----5----%-----5----|-5----%----5----7-----7----7----7----|
D|-5----5----5----%----5----%-----5----|-5----5----3-----2----%-----2----|-3----%----2----5-----5----5----5----|
A|-5----5----3---------3---------------|---------------------------------|-------------------------------------|
E|-3----3------------------------------|---------------------------------|-------------------------------------|

E|--------------------------6----3-----------------------------|------6----3-----------------------------|
B|------------------------------------3------------------------|----------------3------------------------|
G|-7----7----5----%----5-------------------6----5----3---------|---------------------6----5----3---------|
D|-5----5----3----%----2----------------------------------5----|-5----------------------------------5----|
A|-------------------------------------------------------------|-----------------------------------------|
E|-------------------------------------------------------------|-----------------------------------------|

E|------6----3-----------------------------|---------|
B|----------------3------------------------|---------|
G|---------------------6----5----3---------|---------|
D|-5----------------------------------5----|-5-------|
A|-----------------------------------------|---------|
E|-----------------------------------------|---------|
AC-DC - Sink The Pink (2)
AC-DC - Sink The Pink (2).gp4