AC-DC - Touch Too Much (2)

AC-DC



Title: Touch Too Much
Album: Highway To Hell
Artist: AC/DC
Author: 

Track 1: Guitar 1
E|-----------------------------------------|-----------------------------------------|
B|-0---------------------------------------|-0---------------------------------------|
G|-1---------------------------------------|-1---------------------------------------|
D|-2---------------------------------------|-2---------------------------------------|
A|------2----2----2----2----2----2----2----|------2----2----2----2----2----2----2----|
E|------0----0----0----0----0----0----0----|------0----0----0----0----0----0----0----|

E|-----------------------------------------|-----------------------------------------|
B|-0---------------------------------------|-0---------------------------------------|
G|-1---------------------------------------|-1---------------------------------------|
D|-2---------------------------------------|-2---------------------------------------|
A|------2----2----2----2----2----2----2----|------2----2----2----2----2----2----2----|
E|------0----0----0----0----0----0----0----|------0----0----0----0----0----0----0----|

E|-----------------------------------------|-----------------------------------------|
B|-0---------------------------------------|-----------------------------------------|
G|-1---------------------------------------|-0---------------------------------------|
D|-2---------------------------------------|-2----2----2----2----2----2----2----2----|
A|------2----2----2----2----2----2----2----|-3----3----3----3----3----3----3----3----|
E|------0----0----0----0----0----0----0----|-----------------------------------------|

E|-0---------------------------------------|-3----2---------3----2---------3----2----|
B|-2---------------------------------------|-3----3----3----3----3----3----3----3----|
G|-2---------------------------------------|-2----2----2----2----2----2----2----2----|
D|-2----2----2----2----2----2----2----2----|-----------------------------------------|
A|-0----0----0----0----0----0----0----0----|-----------------------------------------|
E|-----------------------------------------|-----------------------------------------|

E|-----------------------------------------|-----------------------------------------|
B|-0---------------------------------------|-----------------------------------------|
G|-1---------------------------------------|-0---------------------------------------|
D|-2---------------------------------------|-2----2----2----2----2----2----2----2----|
A|------2----2----2----2----2----2----2----|-3----3----3----3----3----3----3----3----|
E|------0----0----0----0----0----0----0----|-----------------------------------------|

E|-0--------------0------------------------|-3----2---------3----2---------3---------|
B|-2--------------2--------------2---------|-3----3----3----3----3----3----3---------|
G|-2--------------2----2---------2---------|-2----2----2----2----2----2----2----X----|
D|-2----2----2----2----2----2----2----2----|------------------------------------X----|
A|-0----0----0----0----0----0----0----0----|------------------------------------X----|
E|-----------------------------------------|-----------------------------------------|

E|-----------------------------------------|-----------------------------------------|
B|-----------------------------------------|-----------------------------------------|
G|-5------------------------5---------5----|-------------------------------5---------|
D|-5---------5----5----5----5----5----5----|-5----5----5----5----5----5----5---------|
A|-3----3----3----3----3----3----3----3----|-3----3----3----3----3----3----3----0----|
E|-----------------------------------------|-----------------------------------------|

E|-----------------------------------------|-----------------------------------------|
B|-----------------------------------------|-----------------------------------------|
G|-2------------------------2---------2----|-----------------------------------------|
D|-2---------2----2----2----2----2----2----|-2----2----2----2----2----2----2---------|
A|-0----0----0----0----0----0----0----0----|-0----0----0----0----0----0----0----0----|
E|-----------------------------------------|-----------------------------------------|

E|-----------------------------------------|-----------------------------------------|
B|-----------------------------------------|-----------------------------------------|
G|-5---------5--------------5---------5----|---------------------5---------5---------|
D|-5----5----5----5----5----5----5----5----|-5----5----5----5----5----5----5----5----|
A|-3----3----3----3----3----3----3----3----|-3----3----3----3----3----3----3----3----|
E|-----------------------------------------|-----------------------------------------|

E|-------------------------------------|---------------------------------|---------------------------------|
B|-------------------------------------|---------------------------------|---------------------------------|
G|-7---------7----------7---------7----|-7---------------7---------7-----|-%-------------------------------|
D|-7----7----7-----7----7----7----7----|-7-----7----7----7----7----7-----|-%-----2----2-----2---------5----|
A|-5----5----5-----5----5----5----5----|-5-----5----5----5----5----5-----|-------2----2-----2----2----5----|
E|-------------------------------------|---------------------------------|-------0----0-----0----0----3----|

E|-----------------------------------------|-----------------------------------------|
B|-----------------------------------------|-----------------------------------------|
G|-----------------------------------------|-2---------2---------2--------------5----|
D|-5---------5---------5---------5---------|-2----2----2----2----2----2---------5----|
A|-5----5----5----5----5----5----5----5----|-0----0----0----0----0----0----0----3----|
E|-3----3----3----3----3----3----3----3----|-----------------------------------------|

E|---------------------------------|-----------------------------|-----------------------------------------|
B|----------------3----------3-----|-----------------------------|-----------------------------------------|
G|-5--------------2-----2----2-----|-----------------------------|-----------------------------------------|
D|-5----4----2----0-----0----0-----|-2-----2-----2----------5----|-5---------5---------5---------5---------|
A|-3----2----0---------------------|-2-----2-----2-----2----5----|-5----5----5----5----5----5----5----5----|
E|---------------------------------|-0-----0-----0-----0----3----|-3----3----3----3----3----3----3----3----|

E|-----------------------------------------|---------------------------------|-----------------------------------------|
B|-----------------------------------------|----------------3----------3-----|-----------------------------------------|
G|-2---------2---------2--------------5----|-5--------------2-----2----2-----|-----------------------------------------|
D|-2----2----2----2----2----2---------5----|-5----4----2----0-----0----0-----|-2---------2---------2--------------5----|
A|-0----0----0----0----0----0----0----3----|-3----2----0---------------------|-2----2----2----2----2----2----2----5----|
E|-----------------------------------------|---------------------------------|-0----0----0----0----0----0----0----3----|

E|-----------------------------------------|-----------------------------------------|
B|-----------------------------------------|-----------------------------------------|
G|-----------------------------------------|-2---------2---------2--------------5----|
D|-5---------5---------5---------5---------|-2----2----2----2----2----2---------5----|
A|-5----5----5----5----5----5----5----5----|-0----0----0----0----0----0----0----3----|
E|-3----3----3----3----3----3----3----3----|-----------------------------------------|

E|-------------------------------------|---------------------------------|--------------------|
B|----------------3-----3----3----3----|---------------------------------|--------------------|
G|-5----5----5----2-----2----2----2----|-%-------------------------------|-------%-----%------|
D|-5----5----5----0-----0----0----0----|-%-----2----2-----2---------5----|-5-----%-----%------|
A|-3----3----3-------------------------|-------2----2-----2---------5----|-5------------------|
E|-------------------------------------|-------0----0-----0----0----3----|-3------------------|

E|-----------------------------------------|-----------------------------------------|
B|-----------------------------------------|-3----2----2----3----2----2----3----2----|
G|-----------------------------------------|-2----2----2----2----2----2----2----2----|
D|-2----2----2----2----2----2----2----2----|-----------2--------------2--------------|
A|-0----0----0----0----0----0----0----0----|-----------------------------------------|
E|-----------------------------------------|-----------------------------------------|

E|-----------------------------------------|-------------------------------------|-----------------------------------------|
B|-5---------5---------5---------5---------|-5---------5----5----5----5----------|-0---------------------------------------|
G|-4----4----4----4----4----4----4----4----|-4----4----4----4----4----4----9-----|-1---------------------------------------|
D|-2----2----2----2----2----2----2----2----|-2----2----2----2----2----2----9-----|-2---------2---------2----2----2---------|
A|-----------------------------------------|-------------------------------7-----|-2----X----2----2----2----2----2----2----|
E|-----------------------------------------|-------------------------------------|-0----X----0----0----0----0----0----0----|

E|-------------------------------------|-----------------------------------------|-----------------------------------------|
B|-------------------------------------|-----------2----0----0----2----0----0----|-----------------------------------------|
G|-5--------------5--------------5-----|-2---------2----2----2----2----2----2----|------7----%----7----%----2----%---------|
D|-5----X----5----5----X----5----5-----|-2----X----2----2----2----2----2----2----|-7----7----%----7----%----2----%----2----|
A|-3----X----3----3----X----3----3-----|-0----X---------0----0----0----0----0----|-7----5---------5---------0---------0----|
E|-------------------------------------|-----------------------------------------|-5---------------------------------------|

E|-----------------------------------------|-------------------------------------|-----------------------------------------|
B|-----------------------------------------|-------------------------------------|-----------2----0----0----2----0----0----|
G|-----------------------------------------|-5--------------5--------------5-----|-2---------2----2----2----2----2----2----|
D|-2----2----2---------2---------2---------|-5----X----5----5----X----5----5-----|-2----X----2----2----2----2----2----2----|
A|-2----2----2----X----2----X----2----2----|-3----X----3----3----X----3----3-----|-0----X---------0----0----0----0----0----|
E|-0----0----0----X----0----X----0----0----|-------------------------------------|-----------------------------------------|

E|-----------------------------------------|-----------------------------------------|
B|-----------------------------------------|-----------------------------------------|
G|------7----%----7----%----2----%---------|-5---------5--------------5----5----5----|
D|-7----7----%----7----%----2----%----2----|-5----5----5----5----5----5----5----5----|
A|-7----5---------5---------0---------0----|-3----3----3----3----3----3----3----3----|
E|-5---------------------------------------|-----------------------------------------|

E|--------------------------------------------|-----------------------------------------|
B|--------------------------------------------|-2------------------------2----0----2----|
G|-5---------5---------5---------5------------|-2------------------------2----2----2----|
D|-5----X----5----5----5----5----5----5---X---|-2----X----2----2----2----2----2----2----|
A|-3----X----3----3----3----3----3----3---X---|-0----0----0----0----0----0----0----0----|
E|--------------------------------------------|-----------------------------------------|

E|-----------------------------------------|--------------------------------------------|
B|-----------------------------------------|--------------------------------------------|
G|-2---------2--------------2----2---------|-5------------------------5-----------------|
D|-2----X----2----2----2----2----2----2----|-5----5----5----5----5----5----5----5---5---|
A|-0----0----0----0----0----0----0----0----|-3----3----3----3----3----3----3----3---3---|
E|-----------------------------------------|--------------------------------------------|

E|--------------------------------------------|-----------------------------------------|
B|--------------------------------------------|-----------------------------------------|
G|-5------------------------5----5------------|-7---------7----7---------7----7---------|
D|-5----5----5----5----5----5----5----5---5---|-7----7----7----7----7----7----7----7----|
A|-3----3----3----3----3----3----3----3---3---|-5----5----5----5----5----5----5----5----|
E|--------------------------------------------|-----------------------------------------|

E|-------------------------------------|---------------------------------|-----------------------------------------|
B|-------------------------------------|---------------------------------|-----------------------------------------|
G|-7-------------------7---------7-----|-%-------------------------------|-----------------------------------------|
D|-7----7----7----7----7----7----7-----|-%-----2----2-----2---------5----|-5---------5---------5---------5---------|
A|-5----5----5----5----5----5----5-----|-------2----2-----2----2----5----|-5----5----5----5----5----5----5----5----|
E|-------------------------------------|-------0----0-----0----0----3----|-3----3----3----3----3----3----3----3----|

E|-----------------------------------------|---------------------------------|-----------------------------|
B|-----------------------------------------|----------------3----------3-----|-----------------------------|
G|-2---------2---------2--------------5----|-5--------------2-----2----2-----|-----------------------------|
D|-2----2----2----2----2----2---------5----|-5----4----2----0-----0----0-----|-2-----2-----2----------5----|
A|-0----0----0----0----0----0----0----3----|-3----2----0---------------------|-2-----2-----2-----2----5----|
E|-----------------------------------------|---------------------------------|-0-----0-----0-----0----3----|

E|-----------------------------------------|-----------------------------------------|
B|-----------------------------------------|-----------------------------------------|
G|-----------------------------------------|-2---------2---------2--------------5----|
D|-5---------5---------5---------5---------|-2----2----2----2----2----2---------5----|
A|-5----5----5----5----5----5----5----5----|-0----0----0----0----0----0----0----3----|
E|-3----3----3----3----3----3----3----3----|-----------------------------------------|

E|---------------------------------|-----------------------------------------|-----------------------------------------|
B|----------------3----------3-----|-----------------------------------------|-----------------------------------------|
G|-5--------------2-----2----2-----|-----------------------------------------|-----------------------------------------|
D|-5----4----2----0-----0----0-----|-2---------2---------2--------------5----|-5---------5---------5---------5---------|
A|-3----2----0---------------------|-2----2----2----2----2----2----2----5----|-5----5----5----5----5----5----5----5----|
E|---------------------------------|-0----0----0----0----0----0----0----3----|-3----3----3----3----3----3----3----3----|

E|-----------------------------------------|-------------------------------------|---------------------------------|
B|-----------------------------------------|----------------3-----3----3----3----|---------------------------------|
G|-2---------2---------2--------------5----|-5----5----5----2-----2----2----2----|-%-------------------------------|
D|-2----2----2----2----2----2---------5----|-5----5----5----0-----0----0----0----|-%-----2----2-----2---------5----|
A|-0----0----0----0----0----0----0----3----|-3----3----3-------------------------|-------2----2-----2---------5----|
E|-----------------------------------------|-------------------------------------|-------0----0-----0----0----3----|

E|--------------------|-----------------------------------------|-----------------------------------------|
B|--------------------|-----------------------------------------|-----------------------------------------|
G|-------%-----%------|-----------------------------------------|-----------2----2----2---------2---------|
D|-5-----%-----%------|---------------------2----2----2----2----|-2----2----2----2----2---------2---------|
A|-5------------------|-2----2----2----2----2----2----2----2----|-2----2----2----2----2----2----2----2----|
E|-3------------------|-0----0----0----0----0----0----0----0----|-0----0----0----0----0----0----0----0----|

E|-----------------------------------------|--------------------------------------------|
B|-----------------------------------------|--------------------------------------------|
G|-5---------5--------------5----5----5----|-5---------5---------5---------5------------|
D|-5----5----5----5----5----5----5----5----|-5----5----5----5----5----5----5----5---X---|
A|-3----3----3----3----3----3----3----3----|-3----3----3----3----3----3----3----3---X---|
E|-----------------------------------------|--------------------------------------------|

E|-----------------------------|-----------------------------|-----------------------------------------|
B|-----------------------------|-----------------------------|-----------------------------------------|
G|-2----------2----------2-----|-2----------2----------2-----|-5--------------5--------------5---------|
D|-2-----2----2-----2----2-----|-2-----2----2-----2----2-----|-5----5----5----5----5----5----5----5----|
A|-0-----0----0-----0----0-----|-0-----0----0-----0----0-----|-3----3----3----3----3----3----3----3----|
E|-----------------------------|-----------------------------|-----------------------------------------|

E|--------------------------------------------|-----------------------------|-----------------------------|
B|--------------------------------------------|-----------------------------|-----------------------------|
G|------5--------------5---------5------------|-7----------7----------7-----|------7----------7-----7-----|
D|-5----5----5----5----5----5----5----5---5---|-7----------7----------7-----|------7----------7-----7-----|
A|-3----3----3----3----3----3----3----3---3---|-5-----5----5-----5----5-----|-5----5-----5----5-----5-----|
E|--------------------------------------------|-----------------------------|-----------------------------|

E|-----------------------------------------|-----------------------------------------|
B|-----------------------------------------|-----------------------------------------|
G|-------------------------------2----2----|-2----2----2---------2----4----4----4----|
D|-2----2---------5----5---------2----2----|-2----2----2----5----2----4----4----4----|
A|-2----2---------5----5---------0----0----|-0----0----0----5----0----2----2----2----|
E|-0----0----0----3----3----3--------------|----------------3------------------------|

E|-----------------------------------------|-----------------------------------------|
B|-----------------------------------------|-----------------------------------------|
G|-5----5----5----2----2----2--------------|-----------------------------------------|
D|-5----5----5----2----2----2----2----2----|-2----2----2----2----2----2----2----2----|
A|-3----3----3----0----0----0----2----2----|-2----2----2----2----2----2----2----2----|
E|-------------------------------0----0----|-0----0----0----0----0----0----0----0----|

E|-----------------------------------------|-----------------------------------------|
B|-----------------------------------------|-----------------------------------------|
G|-1----1----1----1----1----1----1----4----|-4----4----4----4----4----4----4----4----|
D|-2----2----2----2----2----2----2----5----|-5----5----5----5----5----5----5----5----|
A|-----------------------------------------|-----------------------------------------|
E|-----------------------------------------|-----------------------------------------|

E|-----------------------------------------|-----------------------------------------|
B|-----------------------------------------|-----------------------------------------|
G|-6----6----6----6----6----6----6----7----|-7----7----7----7----7----7----7----7----|
D|-7----7----7----7----7----7----7----7----|-7----7----7----7----7----7----7----7----|
A|-----------------------------------------|-----------------------------------------|
E|-----------------------------------------|-----------------------------------------|

E|-----------------------------------------|-----------------------------------------|
B|-----------------------------------------|-----------------------------------------|
G|-1----1----1----1----1----1----1----4----|-4----4----4----4----4----4----4----4----|
D|-2----2----2----2----2----2----2----5----|-5----5----5----5----5----5----5----5----|
A|-----------------------------------------|-----------------------------------------|
E|-----------------------------------------|-----------------------------------------|

E|-----------------------------------------|-----------------------------------------|
B|-----------------------------------------|-----------------------------------------|
G|-6----6----6----6----6----6----6----7----|-7----7----7----7----7----7----7----7----|
D|-7----7----7----7----7----7----7----7----|-7----7----7----7----7----7----7----7----|
A|-----------------------------------------|-----------------------------------------|
E|-----------------------------------------|-----------------------------------------|

E|-----------------------------------------|-----------------------------------------|
B|-----------------------------------------|-----------------------------------------|
G|-1----1----1----1----1----1----1----4----|-4----4----4----4----4----4----4----4----|
D|-2----2----2----2----2----2----2----5----|-5----5----5----5----5----5----5----5----|
A|-----------------------------------------|-----------------------------------------|
E|-----------------------------------------|-----------------------------------------|

E|-----------------------------------------|-----------------------------------------|
B|-----------------------------------------|-----------------------------------------|
G|-6----6----6----6----6----6----6----7----|-7----7----7----7----7----7----7----7----|
D|-7----7----7----7----7----7----7----7----|-7----7----7----7----7----7----7----7----|
A|-----------------------------------------|-----------------------------------------|
E|-----------------------------------------|-----------------------------------------|

E|-----------------------------------------|-----------------------------------------|
B|-----------------------------------------|-----------------------------------------|
G|-1----1----1----1----1----1----1----4----|-4----4----4----4----4----4----4----4----|
D|-2----2----2----2----2----2----2----5----|-5----5----5----5----5----5----5----5----|
A|-----------------------------------------|-----------------------------------------|
E|-----------------------------------------|-----------------------------------------|

E|-----------------------------------------|-----------------------------------------|
B|-----------------------------------------|-----------------------------------------|
G|-6----6----6----6----6----6----6----7----|-7----7----7----7----7----7----7----7----|
D|-7----7----7----7----7----7----7----7----|-7----7----7----7----7----7----7----7----|
A|-----------------------------------------|-----------------------------------------|
E|-----------------------------------------|-----------------------------------------|

E|---------------------------------|-----------------------------------------|-----------------------------------------|
B|---------------------------------|-----------------------------------------|-----------------------------------------|
G|-%-------------------------------|-----------------------------------------|-2---------2---------2--------------5----|
D|-%-----2----2-----2---------5----|-5---------5---------5---------5---------|-2----2----2----2----2----2---------5----|
A|-------2----2-----2----2----5----|-5----5----5----5----5----5----5----5----|-0----0----0----0----0----0----0----3----|
E|-------0----0-----0----0----3----|-3----3----3----3----3----3----3----3----|-----------------------------------------|

E|---------------------------------|-----------------------------|-----------------------------------------|
B|----------------3----------3-----|-----------------------------|-----------------------------------------|
G|-5--------------2-----2----2-----|-----------------------------|-----------------------------------------|
D|-5----4----2----0-----0----0-----|-2-----2-----2----------5----|-5---------5---------5---------5---------|
A|-3----2----0---------------------|-2-----2-----2-----2----5----|-5----5----5----5----5----5----5----5----|
E|---------------------------------|-0-----0-----0-----0----3----|-3----3----3----3----3----3----3----3----|

E|-----------------------------------------|---------------------------------|-----------------------------|
B|-----------------------------------------|----------------3----------3-----|-----------------------------|
G|-2---------2---------2--------------5----|-5--------------2-----2----2-----|-----------------------------|
D|-2----2----2----2----2----2---------5----|-5----4----2----0-----0----0-----|-2-----2-----2----------5----|
A|-0----0----0----0----0----0----0----3----|-3----2----0---------------------|-2-----2-----2-----2----5----|
E|-----------------------------------------|---------------------------------|-0-----0-----0-----0----3----|

E|-----------------------------------------|-----------------------------------------|
B|-----------------------------------------|-----------------------------------------|
G|-----------------------------------------|-2---------2---------2--------------5----|
D|-5---------5---------5---------5---------|-2----2----2----2----2----2---------5----|
A|-5----5----5----5----5----5----5----5----|-0----0----0----0----0----0----0----3----|
E|-3----3----3----3----3----3----3----3----|-----------------------------------------|

E|---------------------------------|-----------------------------|-----------------------------------------|
B|----------------3----------3-----|-----------------------------|-----------------------------------------|
G|-5--------------2-----2----2-----|-----------------------------|-----------------------------------------|
D|-5----4----2----0-----0----0-----|-2-----2-----2----------5----|-5---------5---------5---------5---------|
A|-3----2----0---------------------|-2-----2-----2-----2----5----|-5----5----5----5----5----5----5----5----|
E|---------------------------------|-0-----0-----0-----0----3----|-3----3----3----3----3----3----3----3----|

E|-----------------------------------------|---------------------------------|-----------------------------|
B|-----------------------------------------|----------------3----------3-----|-----------------------------|
G|-2---------2---------2--------------5----|-5--------------2-----2----2-----|-----------------------------|
D|-2----2----2----2----2----2---------5----|-5----4----2----0-----0----0-----|-2-----2-----2----------5----|
A|-0----0----0----0----0----0----0----3----|-3----2----0---------------------|-2-----2-----2-----2----5----|
E|-----------------------------------------|---------------------------------|-0-----0-----0-----0----3----|

E|-----------------------------------------|-----------------------------------------|
B|-----------------------------------------|-----------------------------------------|
G|-----------------------------------------|-2---------2---------2--------------5----|
D|-5---------5---------5---------5---------|-2----2----2----2----2----2---------5----|
A|-5----5----5----5----5----5----5----5----|-0----0----0----0----0----0----0----3----|
E|-3----3----3----3----3----3----3----3----|-----------------------------------------|

E|---------------------------------|-----------------------------|-----------------------------------------|
B|----------------3----------3-----|-----------------------------|-----------------------------------------|
G|-5--------------2-----2----2-----|-----------------------------|-----------------------------------------|
D|-5----4----2----0-----0----0-----|-2-----2-----2----------5----|-5---------5---------5---------5---------|
A|-3----2----0---------------------|-2-----2-----2-----2----5----|-5----5----5----5----5----5----5----5----|
E|---------------------------------|-0-----0-----0-----0----3----|-3----3----3----3----3----3----3----3----|

E|-----------------------------------------|---------------------------------|-----------------------------|
B|-----------------------------------------|----------------3----------3-----|-----------------------------|
G|-2---------2---------2--------------5----|-5--------------2-----2----2-----|-----------------------------|
D|-2----2----2----2----2----2---------5----|-5----4----2----0-----0----0-----|-2-----2-----2----------5----|
A|-0----0----0----0----0----0----0----3----|-3----2----0---------------------|-2-----2-----2-----2----5----|
E|-----------------------------------------|---------------------------------|-0-----0-----0-----0----3----|

E|-----------------------------------------|-----------------------------------------|
B|-----------------------------------------|-----------------------------------------|
G|-----------------------------------------|-2---------2---------2--------------5----|
D|-5---------5---------5---------5---------|-2----2----2----2----2----2---------5----|
A|-5----5----5----5----5----5----5----5----|-0----0----0----0----0----0----0----3----|
E|-3----3----3----3----3----3----3----3----|-----------------------------------------|

E|---------------------------------|-----------------------------|-----------------------------------------|
B|----------------3----------3-----|-----------------------------|-----------------------------------------|
G|-5--------------2-----2----2-----|-----------------------------|-----------------------------------------|
D|-5----4----2----0-----0----0-----|-2-----2-----2----------5----|-5---------5---------5---------5---------|
A|-3----2----0---------------------|-2-----2-----2-----2----5----|-5----5----5----5----5----5----5----5----|
E|---------------------------------|-0-----0-----0-----0----3----|-3----3----3----3----3----3----3----3----|

E|-----------------------------------------|-----------------------------------------|
B|-----------------------------------------|-3--------------3--------------3---------|
G|-2----2----2----2----2----2----2----2----|-2----2----2----2----2----2----2----2----|
D|-2----2----2----2----2----2----2----2----|-0----2----2----0----2----2----0----2----|
A|-0----0----0----0----0----0----0----0----|------0----0---------0----0---------0----|
E|-----------------------------------------|-----------------------------------------|

E|-----------------------------------------|-----------------------------------------|
B|-----------------------------------------|-3--------------3--------------3---------|
G|---------------------2----2----2----2----|-2----2----2----2----2----2----2----2----|
D|-2----2----2----2----2----2----2----2----|-0----2----2----0----2----2----0----2----|
A|-0----0----0----0----0----0----0----0----|------0----0---------0----0---------0----|
E|-----------------------------------------|-----------------------------------------|

E|-----------------------------------------|-----------------------------------------|
B|-----------------------------------------|-3--------------3--------------3---------|
G|---------------------2----2----2----2----|-2----2----2----2----2----2----2----2----|
D|-2----2----2----2----2----2----2----2----|-0----2----2----0----2----2----0----2----|
A|-0----0----0----0----0----0----0----0----|------0----0---------0----0---------0----|
E|-----------------------------------------|-----------------------------------------|

E|---------|---------|--------------------|
B|---------|---------|--------0-----------|
G|---------|---------|--------1-----%-----|
D|-2-------|-2-------|-2------2-----%-----|
A|-2-------|-2-------|-2------2-----------|
E|-0-------|-0-------|-0------0-----------|
AC-DC - Touch Too Much (2)
AC-DC - Touch Too Much (2).gp4