ACDC - Baby Please Don 't Go

AC-DC



Title: Baby Please Don't Go
Album: '74 Jailbreak
Artist: 
Author: 

Track 1: guitar
E|--------------------------------------------------------|-----------------------------------------------------|
B|--------------------------------------------------------|-----------------------------------------------------|
G|--------------------------------------------------------|-----------------------------------------------------|
D|--------------------------------------------------------|-----------------------------------------------------|
A|--------------------------------------------------------|-----------------------------------------------------|
E|-0---0---0---0----0---0---0----0---0---0---0----0---0---|-0----0---0---0---0----0---0---0----0---0---0---0----|

E|--------------------------------------------------------|-----------------------------------------------------|
B|--------------------------------------------------------|-----------------------------------------------------|
G|--------------------------------------------------------|-----------------------------------------------------|
D|--------------------------------------------------------|-----------------------------------------------------|
A|--------------------------------------------------------|-----------------------------------------------------|
E|-0---0---0----0---0---0---0----0---0---0----0---0---0---|-0----0---0---0----0---0---0---0----0---0---0----0---|

E|-------------------------------------------------|------------------------------------------|
B|--------------10--12--15----15-------------------|------10--12--15----15--------------------|
G|--------------------------------15--14--12--9----|-9----------------------15--14--12--9-----|
D|-------------------------------------------------|------------------------------------------|
A|-------------------------------------------------|------------------------------------------|
E|-0---0---0---------------------------------------|------------------------------------------|

E|---------------------------------------------|------------------------------|--------------------15------------------|
B|-10--12--15----15--------------------10--12--|-15----15---------------------|-17-----12--15--17------17--15--12------|
G|-------------------15--14--12--9-------------|-----------15--14--12--9------|------------------------------------15--|
D|---------------------------------------------|------------------------------|----------------------------------------|
A|---------------------------------------------|------------------------------|----------------------------------------|
E|---------------------------------------------|------------------------------|----------------------------------------|

E|--------------------15-----------------------|---------15---------------------------------------------------|
B|--------12--15--17------17--15--12-------12--|-15--17------17--15--17-------------------15------------------|
G|-15---------------------------------15-------|--------------------------14--12--15--16------16--14--12------|
D|---------------------------------------------|----------------------------------------------------------14--|
A|---------------------------------------------|--------------------------------------------------------------|
E|---------------------------------------------|--------------------------------------------------------------|

E|--------------------------------------------------------------|--------------------------------------------------|
B|-------------15-----------------------------------------------|--------------------------------------------------|
G|-----15--16------16--14--12-----------------------------------|--------------------------------------------------|
D|-12--------------------------14--12---------------------------|--------------------------------------------------|
A|-------------------------------------14--12-------------------|--------------------------------------------------|
E|---------------------------------------------15--12---12--15--|-0----3----0---0---0---0---3----0---0----0---3----|

E|-------------------------3-----|-3-------|--------------------------------------------------|
B|-------------------------5-----|-5-------|--------------------------------------------------|
G|-2-----------------------0-----|-0-------|--------------------------------------------------|
D|-2-----------------------------|---------|--------------------------------------------------|
A|-0------2---0------------------|---------|--------------------------------------------------|
E|----------------3---0----------|---------|-0----3----0---0---0---0---3----0---0----0---3----|

E|-------------------------3-----|-3-------|--------------------15------------------|
B|-------------------------5-----|-5-------|-17-----12--15--17------17--15--12------|
G|-2-----------------------0-----|-0-------|------------------------------------15--|
D|-2-----------------------------|---------|----------------------------------------|
A|-0------2---0------------------|---------|----------------------------------------|
E|----------------3---0----------|---------|----------------------------------------|

E|--------------------15-----------------------|---------15---------------------------------------------------|
B|--------12--15--17------17--15--12-------12--|-15--17------17--15--17-------------------15------------------|
G|-15---------------------------------15-------|--------------------------14--12--15--16------16--14--12------|
D|---------------------------------------------|----------------------------------------------------------14--|
A|---------------------------------------------|--------------------------------------------------------------|
E|---------------------------------------------|--------------------------------------------------------------|

E|--------------------------------------------------------------|--------------------------------------------------|
B|-------------15-----------------------------------------------|--------------------------------------------------|
G|-----15--16------16--14--12-----------------------------------|--------------------------------------------------|
D|-12--------------------------14--12---------------------------|--------------------------------------------------|
A|-------------------------------------14--12-------------------|--------------------------------------------------|
E|---------------------------------------------15--12---12--15--|-0----3----0---0---0---0---3----0---0----0---3----|

E|-------------------------3-----|-3-------|--------------------------------------------------|
B|-------------------------5-----|-5-------|--------------------------------------------------|
G|-2-----------------------0-----|-0-------|--------------------------------------------------|
D|-2-----------------------------|---------|--------------------------------------------------|
A|-0------2---0------------------|---------|--------------------------------------------------|
E|----------------3---0----------|---------|-0----3----0---0---0---0---3----0---0----0---3----|

E|-------------------------3-----|-3-------|--------------------15------------------|
B|-------------------------5-----|-5-------|-17-----12--15--17------17--15--12------|
G|-2-----------------------0-----|-0-------|------------------------------------15--|
D|-2-----------------------------|---------|----------------------------------------|
A|-0------2---0------------------|---------|----------------------------------------|
E|----------------3---0----------|---------|----------------------------------------|

E|--------------------15-----------------------|---------15---------------------------------------------------|
B|--------12--15--17------17--15--12-------12--|-15--17------17--15--17-------------------15------------------|
G|-15---------------------------------15-------|--------------------------14--12--15--16------16--14--12------|
D|---------------------------------------------|----------------------------------------------------------14--|
A|---------------------------------------------|--------------------------------------------------------------|
E|---------------------------------------------|--------------------------------------------------------------|

E|--------------------------------------------------------------|-------------------------------------------|
B|-------------15-----------------------------------------------|-15---15---------------------15---15-------|
G|-----15--16------16--14--12-----------------------------------|-----------15--14--12--9---------------15--|
D|-12--------------------------14--12---------------------------|-------------------------------------------|
A|-------------------------------------14--12-------------------|-------------------------------------------|
E|---------------------------------------------15--12---12--15--|-------------------------------------------|

E|-------------------------------------------|----------------------------------|---------------|
B|---------------15---15---------------------|-----15---15----------------------|---------------|
G|-14--12--9---------------15--14--12--9-----|-9-------------15--14--12--9------|-%-------------|
D|-------------------------------------------|----------------------------------|-%-----2-------|
A|-------------------------------------------|----------------------------------|-------2-------|
E|-------------------------------------------|----------------------------------|-------0-------|

E|---------------|---------------|---------------|---------------|---------------|---------------|
B|---------------|---------------|---------------|---------------|---------------|---------------|
G|---------------|---------------|---------------|---------------|---------------|---------------|
D|-2-----3-------|-3-----4-------|-4-----5-------|-5-----6-------|-6-----7-------|-7-----8-------|
A|-2-----3-------|-3-----4-------|-4-----5-------|-5-----6-------|-6-----7-------|-7-----8-------|
E|-0-----1-------|-1-----2-------|-2-----3-------|-3-----4-------|-4-----5-------|-5-----6-------|

E|---------------|-----------------------------------------|--------------------15------------------|
B|---------------|-----------------------------------------|-17-----12--15--17------17--15--12------|
G|---------------|-----------------------------------------|------------------------------------15--|
D|-8-----9-------|-6----7----8----9----10---11---12---13---|----------------------------------------|
A|-8-----9-------|-6----7----8----9----10---11---12---13---|----------------------------------------|
E|-6-----7-------|-4----5----6----7----8----9----10---11---|----------------------------------------|

E|--------------------15-----------------------|---------15---------------------------------------------------|
B|--------12--15--17------17--15--12-------12--|-15--17------17--15--17-------------------15------------------|
G|-15---------------------------------15-------|--------------------------14--12--15--16------16--14--12------|
D|---------------------------------------------|----------------------------------------------------------14--|
A|---------------------------------------------|--------------------------------------------------------------|
E|---------------------------------------------|--------------------------------------------------------------|

E|--------------------------------------------------------------|---------|-7---4---0---7---4---0---7---4---0---7---4---0---7---4---0---7---|
B|-------------15-----------------------------------------------|---------|-----------------------------------------------------------------|
G|-----15--16------16--14--12-----------------------------------|-%-------|-----------------------------------------------------------------|
D|-12--------------------------14--12---------------------------|-%-------|-----------------------------------------------------------------|
A|-------------------------------------14--12-------------------|---------|-----------------------------------------------------------------|
E|---------------------------------------------15--12---12--15--|---------|-----------------------------------------------------------------|

E|-4---0---7---4---0---7---4---0-----------------------------------|-----------------------------------------------------------------|
B|---------------------------------7---4---0---7---4---0---7---4---|-0---7---4---0---7---4---0---7---4---0---7---4---0---7---4---0---|
G|-----------------------------------------------------------------|-----------------------------------------------------------------|
D|-----------------------------------------------------------------|-----------------------------------------------------------------|
A|-----------------------------------------------------------------|-----------------------------------------------------------------|
E|-----------------------------------------------------------------|-----------------------------------------------------------------|

E|-----------------------------------------------------------------|-----------------------------------------------------------------|
B|-----------------------------------------------------------------|-----------------------------------------------------------------|
G|-7---4---0---7---4---0---7---4---0---7---4---0-------------------|-----------------------------------------------------------------|
D|-------------------------------------------------7---4---0---7---|-4---0---7---4---0---7---4---0-----------------------------------|
A|-----------------------------------------------------------------|---------------------------------7---4---0---7---4---0---7---4---|
E|-----------------------------------------------------------------|-----------------------------------------------------------------|

E|-----------------------------------------------------------------|---------|-7---4---0---7---4---0---7---4---0---7---4---0---7---4---0---7---|
B|-----------------------------------------------------------------|---------|-----------------------------------------------------------------|
G|-----------------------------------------------------------------|-%-------|-----------------------------------------------------------------|
D|-----------------------------------------------------------------|-%-------|-----------------------------------------------------------------|
A|-0---7---4---0---------------------------------------------------|---------|-----------------------------------------------------------------|
E|-----------------7---4---0---7---4---0---7---4---0---7---4---0---|---------|-----------------------------------------------------------------|

E|-4---0---7---4---0---7---4---0-----------------------------------|-----------------------------------------------------------------|
B|---------------------------------7---4---0---7---4---0---7---4---|-0---7---4---0---7---4---0---7---4---0---7---4---0---7---4---0---|
G|-----------------------------------------------------------------|-----------------------------------------------------------------|
D|-----------------------------------------------------------------|-----------------------------------------------------------------|
A|-----------------------------------------------------------------|-----------------------------------------------------------------|
E|-----------------------------------------------------------------|-----------------------------------------------------------------|

E|-----------------------------------------------------------------|-----------------------------------------------------------------|
B|-----------------------------------------------------------------|-----------------------------------------------------------------|
G|-7---4---0---7---4---0---7---4---0---7---4---0-------------------|-----------------------------------------------------------------|
D|-------------------------------------------------7---4---0---7---|-4---0---7---4---0---7---4---0-----------------------------------|
A|-----------------------------------------------------------------|---------------------------------7---4---0---7---4---0---7---4---|
E|-----------------------------------------------------------------|-----------------------------------------------------------------|

E|-----------------------------------------------------------------|---------------|
B|-----------------------------------------------------------------|---------------|
G|-----------------------------------------------------------------|-%-------------|
D|-----------------------------------------------------------------|-%-----2-------|
A|-0---7---4---0---------------------------------------------------|-------2-------|
E|-----------------7---4---0---7---4---0---7---4---0---7---4---0---|-------0-------|

E|---------------|---------------|---------------|---------------|---------------|---------------|
B|---------------|---------------|---------------|---------------|---------------|---------------|
G|---------------|---------------|---------------|---------------|---------------|---------------|
D|-2-----3-------|-3-----4-------|-4-----5-------|-5-----6-------|-6-----7-------|-7-----8-------|
A|-2-----3-------|-3-----4-------|-4-----5-------|-5-----6-------|-6-----7-------|-7-----8-------|
E|-0-----1-------|-1-----2-------|-2-----3-------|-3-----4-------|-4-----5-------|-5-----6-------|

E|---------------|-----------------------------------------|--------------------15------------------|
B|---------------|-----------------------------------------|-17-----12--15--17------17--15--12------|
G|---------------|-----------------------------------------|------------------------------------15--|
D|-8-----9-------|-6----7----8----9----10---11---12---13---|----------------------------------------|
A|-8-----9-------|-6----7----8----9----10---11---12---13---|----------------------------------------|
E|-6-----7-------|-4----5----6----7----8----9----10---11---|----------------------------------------|

E|--------------------15-----------------------|---------15---------------------------------------------------|
B|--------12--15--17------17--15--12-------12--|-15--17------17--15--17-------------------15------------------|
G|-15---------------------------------15-------|--------------------------14--12--15--16------16--14--12------|
D|---------------------------------------------|----------------------------------------------------------14--|
A|---------------------------------------------|--------------------------------------------------------------|
E|---------------------------------------------|--------------------------------------------------------------|

E|--------------------------------------------------------------|---------|
B|-------------15-----------------------------------------------|---------|
G|-----15--16------16--14--12-----------------------------------|---------|
D|-12--------------------------14--12---------------------------|---------|
A|-------------------------------------14--12-------------------|---------|
E|---------------------------------------------15--12---12--15--|-15------|
ACDC - Baby Please Don 't Go
ACDC - Baby Please Don_'t Go.gp3