ACDC - Back in Black

AC-DC



Title: Back in black
Album: Back in Black
Artist: AC/DC
Author: Young, Young, Johnson

Track 1: Rhythm Guitar
E|-------X-----------X-----|-------X------------|---------------------------------------|
B|-------X-----------X-----|-------X------------|------------3---3---3------------------|
G|-X-----X-----X-----X-----|-X-----X-----%------|-------%----2---2---2-----%----2---2---|
D|-X-----------X-----------|-X-----------%------|-2-----%----0---0---0-----%----2---2---|
A|-X-----------X-----------|-X------------------|-2-----------------------------0---0---|
E|-------------------------|--------------------|-0-------------------------------------|

E|-----------------3---0--------------------|---------------------------------------|
B|-------------------------3---0------------|------------3---3---3------------------|
G|-2-----%-----%-------------------2----0---|-------%----2---2---2-----%----2---2---|
D|-2-----%-----%----------------------------|-2-----%----0---0---0-----%----2---2---|
A|-0----------------------------------------|-2-----------------------------0---0---|
E|------------------------------------------|-0-------------------------------------|

E|----------------------------------------------|---------------------------------------|
B|----------------------------------------------|------------3---3---3------------------|
G|-2-------------------------------%------------|-------%----2---2---2-----%----2---2---|
D|-2-------------------------------%------------|-2-----%----0---0---0-----%----2---2---|
A|-0-----2--------2--------2-----------2--------|-2-----------------------------0---0---|
E|-----------4--------5--------6-----------7----|-0-------------------------------------|

E|-----------------3---0--------------------|---------------------------------------|
B|-------------------------3---0------------|------------3---3---3------------------|
G|-2-----%-----%-------------------2----0---|-------%----2---2---2-----%----2---2---|
D|-2-----%-----%----------------------------|-2-----%----0---0---0-----%----2---2---|
A|-0----------------------------------------|-2-----------------------------0---0---|
E|------------------------------------------|-0-------------------------------------|

E|----------------------------------------------|---------------------------------------|
B|----------------------------------------------|------------3---3---3------------------|
G|-2-------------------------------%------------|-------%----2---2---2-----%----2---2---|
D|-2-------------------------------%------------|-2-----%----0---0---0-----%----2---2---|
A|-0-----2--------2--------2-----------2--------|-2-----------------------------0---0---|
E|-----------4--------5--------6-----------7----|-0-------------------------------------|

E|-----------------3---0--------------------|---------------------------------------|
B|-------------------------3---0------------|------------3---3---3------------------|
G|-2-----%-----%-------------------2----0---|-------%----2---2---2-----%----2---2---|
D|-2-----%-----%----------------------------|-2-----%----0---0---0-----%----2---2---|
A|-0----------------------------------------|-2-----------------------------0---0---|
E|------------------------------------------|-0-------------------------------------|

E|----------------------------------------------|---------------------------------------|
B|----------------------------------------------|------------3---3---3------------------|
G|-2-------------------------------%------------|-------%----2---2---2-----%----2---2---|
D|-2-------------------------------%------------|-2-----%----0---0---0-----%----2---2---|
A|-0-----2--------2--------2-----------2--------|-2-----------------------------0---0---|
E|-----------4--------5--------6-----------7----|-0-------------------------------------|

E|-----------------3---0--------------------|---------------------------------------|
B|-------------------------3---0------------|------------3---3---3------------------|
G|-2-----%-----%-------------------2----0---|-------%----2---2---2-----%----2---2---|
D|-2-----%-----%----------------------------|-2-----%----0---0---0-----%----2---2---|
A|-0----------------------------------------|-2-----------------------------0---0---|
E|------------------------------------------|-0-------------------------------------|

E|----------------------------------------------|-----------------------------------------|
B|----------------------------------------------|-----------------------------------------|
G|-2-------------------------------%------------|-%----2----2---------4-----2---2----4----|
D|-2-------------------------------%------------|-%----2----2---2-----4-----2---2----4----|
A|-0-----2--------2--------2-----------2--------|------0----0---2-----2-----0---0----2----|
E|-----------4--------5--------6-----------7----|---------------0-------------------------|

E|-----------------------------------------|------3----3---2-------------------------|
B|-----------------------------------------|------3----3---3-------------------------|
G|-4----2----2---------4-----2---2----4----|-4----0----0---2-----2--------------2----|
D|-4----2----2---2-----4-----2---2----4----|-4----0----0---0-----2--------------2----|
A|-2----0----0---2-----2-----0---0----2----|-2----X----0---------0--------------0----|
E|---------------0-------------------------|------3----3---------------3---3---------|

E|------3----3---2-------------------------|-----------------------------------------|
B|------3----3---3-------------------------|-----------------------------------------|
G|-2----0----0---2-----2--------------2----|-%----2----2---------4-----2---2----4----|
D|-2----0----0---0-----2--------------2----|-%----2----2---2-----4-----2---2----4----|
A|-0----X----0---------0--------------0----|------0----0---2-----2-----0---0----2----|
E|------3----3---------------3---3---------|---------------0-------------------------|

E|-----------------------------------------|-3-----3---3----3----3---3---3---3---3----3----|
B|-----------------------------------------|-3-----3---3----3----3---3---3---3---3----3----|
G|-4----2----2---------4-----2---2----4----|-0-----0---0----0----0---0---0---0---0----0----|
D|-4----2----2---2-----4-----2---2----4----|-0-----0---0----0----0---0---0---0---0----0----|
A|-2----0----0---2-----2-----0---0----2----|-X-----X---0----X----0---X---X---X---X----X----|
E|---------------0-------------------------|-3-----3---3----3----3---3---3---3---3----3----|

E|-2-----2---2----2----2------|---------------------------------------|-----------------3---0--------------------|
B|-3-----3---3----3----3------|------------3---3---3------------------|-------------------------3---0------------|
G|-2-----2---2----2----2------|-------%----2---2---2-----%----2---2---|-2-----%-----%-------------------2----0---|
D|-0-----0---0----0----0------|-2-----%----0---0---0-----%----2---2---|-2-----%-----%----------------------------|
A|----------------------------|-2-----------------------------0---0---|-0----------------------------------------|
E|----------------------------|-0-------------------------------------|------------------------------------------|

E|---------------------------------------|----------------------------------------------|
B|------------3---3---3------------------|----------------------------------------------|
G|-------%----2---2---2-----%----2---2---|-2-------------------------------%------------|
D|-2-----%----0---0---0-----%----2---2---|-2-------------------------------%------------|
A|-2-----------------------------0---0---|-0-----2--------2--------2-----------2--------|
E|-0-------------------------------------|-----------4--------5--------6-----------7----|

E|---------------------------------------|-----------------3---0--------------------|
B|------------3---3---3------------------|-------------------------3---0------------|
G|-------%----2---2---2-----%----2---2---|-2-----%-----%-------------------2----0---|
D|-2-----%----0---0---0-----%----2---2---|-2-----%-----%----------------------------|
A|-2-----------------------------0---0---|-0----------------------------------------|
E|-0-------------------------------------|------------------------------------------|

E|---------------------------------------|----------------------------------------------|
B|------------3---3---3------------------|----------------------------------------------|
G|-------%----2---2---2-----%----2---2---|-2-------------------------------%------------|
D|-2-----%----0---0---0-----%----2---2---|-2-------------------------------%------------|
A|-2-----------------------------0---0---|-0-----2--------2--------2-----------2--------|
E|-0-------------------------------------|-----------4--------5--------6-----------7----|

E|-----------------------------------------|-----------------------------------------|
B|-----------------------------------------|-----------------------------------------|
G|-%----2----2---------4-----2---2----4----|-4----2----2---------4-----2---2----4----|
D|-%----2----2---2-----4-----2---2----4----|-4----2----2---2-----4-----2---2----4----|
A|------0----0---2-----2-----0---0----2----|-2----0----0---2-----2-----0---0----2----|
E|---------------0-------------------------|---------------0-------------------------|

E|------3----3---2-------------------------|------3----3---2-------------------------|
B|------3----3---3-------------------------|------3----3---3-------------------------|
G|-4----0----0---2-----2--------------2----|-2----0----0---2-----2--------------2----|
D|-4----0----0---0-----2--------------2----|-2----0----0---0-----2--------------2----|
A|-2----X----0---------0--------------0----|-0----X----0---------0--------------0----|
E|------3----3---------------3---3---------|------3----3---------------3---3---------|

E|-----------------------------------------|-----------------------------------------|
B|-----------------------------------------|-----------------------------------------|
G|-%----2----2---------4-----2---2----4----|-4----2----2---------4-----2---2----4----|
D|-%----2----2---2-----4-----2---2----4----|-4----2----2---2-----4-----2---2----4----|
A|------0----0---2-----2-----0---0----2----|-2----0----0---2-----2-----0---0----2----|
E|---------------0-------------------------|---------------0-------------------------|

E|-3-----3---3----3----3---3---3---3---3----3----|-2-----2---2----2----2------|---------------------------------------|
B|-3-----3---3----3----3---3---3---3---3----3----|-3-----3---3----3----3------|---------------------------------------|
G|-0-----0---0----0----0---0---0---0---0----0----|-2-----2---2----2----2------|-------%------------------%------------|
D|-0-----0---0----0----0---0---0---0---0----0----|-0-----0---0----0----0------|-2-----%------------------%------------|
A|-X-----X---0----X----0---X---X---X---X----X----|----------------------------|-2----------5---5---5----------4---4---|
E|-3-----3---3----3----3---3---3---3---3----3----|----------------------------|-0----------0---0---0----------0---0---|

E|----------------------------------------------|---------------------------------------|
B|----------------------------------------------|---------------------------------------|
G|-------%--------------------------------------|-------%------------------%------------|
D|-------%----2---2---2----2---2---2----2---2---|-2-----%------------------%------------|
A|-4----------2---2---2----2---2---2----2---2---|-2----------5---5---5----------4---4---|
E|-0----------0---0---0----0---0---0----0---0---|-0----------0---0---0----------0---0---|

E|-------------------------------------|---------------------------------------|----------------------------------------------|
B|-----------------2--------------2----|---------------------------------------|----------------------------------------------|
G|-------%---------2--------------2----|-------%------------------%------------|-------%--------------------------------------|
D|-------%----2----2-----2---2----2----|-2-----%------------------%------------|-------%----2---2---2----2---2---2----2---2---|
A|-4----------2----0-----2---2----0----|-2----------5---5---5----------4---4---|-4----------2---2---2----2---2---2----2---2---|
E|-0----------0----------0---0---------|-0----------0---0---0----------0---0---|-0----------0---0---0----0---0---0----0---0---|

E|---------------------------------------|-------------------------------------|---------------------------------------|
B|---------------------------------------|-----------------2--------------2----|---------------------------------------|
G|-------%------------------%------------|-------%---------2--------------2----|-------%------------------%------------|
D|-2-----%------------------%------------|-------%----2----2-----2---2----2----|-2-----%------------------%------------|
A|-2----------5---5---5----------4---4---|-4----------2----0-----2---2----0----|-2----------5---5---5----------4---4---|
E|-0----------0---0---0----------0---0---|-0----------0----------0---0---------|-0----------0---0---0----------0---0---|

E|----------------------------------------------|---------------------------------------|
B|----------------------------------------------|---------------------------------------|
G|-------%--------------------------------------|-------%------------------%------------|
D|-------%----2---2---2----2---2---2----2---2---|-2-----%------------------%------------|
A|-4----------2---2---2----2---2---2----2---2---|-2----------5---5---5----------4---4---|
E|-0----------0---0---0----0---0---0----0---0---|-0----------0---0---0----------0---0---|

E|-------------------------------------|---------------------------------------|----------------------------------------------|
B|-----------------2--------------2----|---------------------------------------|----------------------------------------------|
G|-------%---------2--------------2----|-------%------------------%------------|-------%--------------------------------------|
D|-------%----2----2-----2---2----2----|-2-----%------------------%------------|-------%----2---2---2----2---2---2----2---2---|
A|-4----------2----0-----2---2----0----|-2----------5---5---5----------4---4---|-4----------2---2---2----2---2---2----2---2---|
E|-0----------0----------0---0---------|-0----------0---0---0----------0---0---|-0----------0---0---0----0---0---0----0---0---|

E|---------------------------------------|-------------------------------------|-----------------------------------------|
B|---------------------------------------|-----------------2--------------2----|-----------------------------------------|
G|---------------------------------------|-----------------2--------------2----|-%----2----2---------4-----2---2----4----|
D|-2-----2-------------------------------|------------2----2-----2---2----2----|-%----2----2---2-----4-----2---2----4----|
A|-2-----2----5---5---5-----5----4---4---|-4-----4----2----0-----2---2----0----|------0----0---2-----2-----0---0----2----|
E|-0-----0----0---0---0-----0----0---0---|-0-----0----0----------0---0---------|---------------0-------------------------|

E|-----------------------------------------|------3----3---2-------------------------|
B|-----------------------------------------|------3----3---3-------------------------|
G|-4----2----2---------4-----2---2----4----|-4----0----0---2-----2--------------2----|
D|-4----2----2---2-----4-----2---2----4----|-4----0----0---0-----2--------------2----|
A|-2----0----0---2-----2-----0---0----2----|-2----X----0---------0--------------0----|
E|---------------0-------------------------|------3----3---------------3---3---------|

E|------3----3---2-------------------------|-----------------------------------------|
B|------3----3---3-------------------------|-----------------------------------------|
G|-2----0----0---2-----2--------------2----|-%----2----2---------4-----2---2----4----|
D|-2----0----0---0-----2--------------2----|-%----2----2---2-----4-----2---2----4----|
A|-0----X----0---------0--------------0----|------0----0---2-----2-----0---0----2----|
E|------3----3---------------3---3---------|---------------0-------------------------|

E|-----------------------------------------|-3-----3---3----3----3---3---3---3---3----3----|
B|-----------------------------------------|-3-----3---3----3----3---3---3---3---3----3----|
G|-4----2----2---------4-----2---2----4----|-0-----0---0----0----0---0---0---0---0----0----|
D|-4----2----2---2-----4-----2---2----4----|-0-----0---0----0----0---0---0---0---0----0----|
A|-2----0----0---2-----2-----0---0----2----|-X-----X---0----X----0---X---X---X---X----X----|
E|---------------0-------------------------|-3-----3---3----3----3---3---3---3---3----3----|

E|-2-----2---2----2----2------|--------------------------------------------------------|
B|-3-----3---3----3----3------|--------------------------------------------------------|
G|-2-----2---2----2----2------|--------------------------------------------------------|
D|-0-----0---0----0----0------|--------------------------------------------------------|
A|----------------------------|-----5---4---2---4--------2--------2-----------2--------|
E|----------------------------|-0-------------------3--------5--------6---6-------7----|

E|--------------------------------------------------------|--------------------------------------------------------|
B|--------------------------------------------------------|--------------------------------------------------------|
G|--------------------------------------------------------|--------------------------------------------------------|
D|--------------------------------------------------------|--------------------------------------------------------|
A|-----5---4---2---4--------2--------2-----------2--------|-----5---4---2---4--------2--------2-----------2--------|
E|-0-------------------3--------5--------6---6-------7----|-0-------------------3--------5--------6---6-------7----|

E|--------------------------------------------------------|--------------------------------------------------------|
B|--------------------------------------------------------|--------------------------------------------------------|
G|--------------------------------------------------------|--------------------------------------------------------|
D|--------------------------------------------------------|-----5---4---2---4--------2--------2-----------2--------|
A|-----5---4---2---4--------2--------2-----------2--------|-0-------------------3--------5--------6---6-------7----|
E|-0-------------------3--------5--------6---6-------7----|--------------------------------------------------------|

E|--------------------------------------------------------|--------------------------------------------------------|
B|--------------------------------------------------------|--------------------------------------------------------|
G|--------------------------------------------------------|--------------------------------------------------------|
D|-----5---4---2---4--------2--------2-----------2--------|--------------------------------------------------------|
A|-0-------------------3--------5--------6---6-------7----|-----5---4---2---4--------2--------2-----------2--------|
E|--------------------------------------------------------|-0-------------------3--------5--------6---6-------7----|

E|--------------------------------------------------------|-----------------------------------------|
B|--------------------------------------------------------|-----------------------------------------|
G|--------------------------------------------------------|-%----2----2---------4-----2---2----4----|
D|--------------------------------------------------------|-%----2----2---2-----4-----2---2----4----|
A|-----5---4---2---4--------2--------2-----------2--------|------0----0---2-----2-----0---0----2----|
E|-0-------------------3--------5--------6---6-------7----|---------------0-------------------------|

E|-----------------------------------------|------3----3---2-------------------------|
B|-----------------------------------------|------3----3---3-------------------------|
G|-4----2----2---------4-----2---2----4----|-4----0----0---2-----2--------------2----|
D|-4----2----2---2-----4-----2---2----4----|-4----0----0---0-----2--------------2----|
A|-2----0----0---2-----2-----0---0----2----|-2----X----0---------0--------------0----|
E|---------------0-------------------------|------3----3---------------3---3---------|

E|------3----3---2-------------------------|-----------------------------------------|
B|------3----3---3-------------------------|-----------------------------------------|
G|-2----0----0---2-----2--------------2----|-%----2----2---------4-----2---2----4----|
D|-2----0----0---0-----2--------------2----|-%----2----2---2-----4-----2---2----4----|
A|-0----X----0---------0--------------0----|------0----0---2-----2-----0---0----2----|
E|------3----3---------------3---3---------|---------------0-------------------------|

E|-----------------------------------------|-3-----3---3----3----3---3---3---3---3----3----|
B|-----------------------------------------|-3-----3---3----3----3---3---3---3---3----3----|
G|-4----2----2---------4-----2---2----4----|-0-----0---0----0----0---0---0---0---0----0----|
D|-4----2----2---2-----4-----2---2----4----|-0-----0---0----0----0---0---0---0---0----0----|
A|-2----0----0---2-----2-----0---0----2----|-X-----X---0----X----0---X---X---X---X----X----|
E|---------------0-------------------------|-3-----3---3----3----3---3---3---3---3----3----|

E|-2-----2---2----2----2------|---------|---------|---------------------------------------|
B|-3-----3---3----3----3------|---------|---------|---------------------------------------|
G|-2-----2---2----2----2------|-2-------|-2-------|-------%------------------%------------|
D|-0-----0---0----0----0------|-2-------|-2-------|-2-----%------------------%------------|
A|----------------------------|-0-------|-0-------|-2----------5---5---5----------4---4---|
E|----------------------------|---------|---------|-0----------0---0---0----------0---0---|

E|----------------------------------------------|---------------------------------------|
B|----------------------------------------------|---------------------------------------|
G|-------%--------------------------------------|---------------------------------------|
D|-------%----2---2---2----2---2---2----2---2---|-2-----2-------------------------------|
A|-4----------2---2---2----2---2---2----2---2---|-2-----2----5---5---5-----5----4---4---|
E|-0----------0---0---0----0---0---0----0---0---|-0-----0----0---0---0-----0----0---0---|

E|-------------------------------------|---------------------------------------|----------------------------------------------|
B|-----------------2--------------2----|---------------------------------------|----------------------------------------------|
G|-----------------2--------------2----|-------%------------------%------------|-------%--------------------------------------|
D|------------2----2-----2---2----2----|-2-----%------------------%------------|-------%----2---2---2----2---2---2----2---2---|
A|-4-----4----2----0-----2---2----0----|-2----------5---5---5----------4---4---|-4----------2---2---2----2---2---2----2---2---|
E|-0-----0----0----------0---0---------|-0----------0---0---0----------0---0---|-0----------0---0---0----0---0---0----0---0---|

E|---------------------------------------|-------------------------------------|---------------------------------------|
B|---------------------------------------|-----------------2--------------2----|---------------------------------------|
G|---------------------------------------|-----------------2--------------2----|-------%------------------%------------|
D|-2-----2-------------------------------|------------2----2-----2---2----2----|-2-----%------------------%------------|
A|-2-----2----5---5---5-----5----4---4---|-4-----4----2----0-----2---2----0----|-2----------5---5---5----------4---4---|
E|-0-----0----0---0---0-----0----0---0---|-0-----0----0----------0---0---------|-0----------0---0---0----------0---0---|

E|----------------------------------------------|---------------------------------------|
B|----------------------------------------------|---------------------------------------|
G|-------%--------------------------------------|---------------------------------------|
D|-------%----2---2---2----2---2---2----2---2---|-2-----2-------------------------------|
A|-4----------2---2---2----2---2---2----2---2---|-2-----2----5---5---5-----5----4---4---|
E|-0----------0---0---0----0---0---0----0---0---|-0-----0----0---0---0-----0----0---0---|

E|-------------------------------------|---------------------------------------|----------------------------------------------|
B|-----------------2--------------2----|---------------------------------------|----------------------------------------------|
G|-----------------2--------------2----|-------%------------------%------------|-------%--------------------------------------|
D|------------2----2-----2---2----2----|-2-----%------------------%------------|-------%----2---2---2----2---2---2----2---2---|
A|-4-----4----2----0-----2---2----0----|-2----------5---5---5----------4---4---|-4----------2---2---2----2---2---2----2---2---|
E|-0-----0----0----------0---0---------|-0----------0---0---0----------0---0---|-0----------0---0---0----0---0---0----0---0---|

E|---------------------------------------|-------------------------------------|
B|---------------------------------------|-----------------2--------------2----|
G|---------------------------------------|-----------------2--------------2----|
D|-2-----2-------------------------------|------------2----2-----2---2----2----|
A|-2-----2----5---5---5-----5----4---4---|-4-----4----2----0-----2---2----0----|
E|-0-----0----0---0---0-----0----0---0---|-0-----0----0----------0---0---------|
ACDC - Back in Black
ACDC - Back in Black.gp3