ACDC - Bad Boy Boogie

AC-DC



Title: BAD BOY BOOGIE (SOLO)
Album: LET THERE BE ROCK
Artist: AC/DC
Author: 

Track 1: Angus YOUNG (Lead Guitar)
E|----------------------------|---------|----------------------------|---------|----------------------------|
B|----------------------------|---------|----------------------------|---------|----------------------------|
G|-%------2----2----2----2----|-2-------|-2------2----2----2----2----|-2-------|-2------2----2----2----2----|
D|-%------2----2----2----2----|-2-------|-2------2----2----2----2----|-2-------|-2------2----2----2----2----|
A|--------0----0----0----0----|-0-------|-0------0----0----0----0----|-0-------|-0------0----0----0----0----|
E|----------------------------|---------|----------------------------|---------|----------------------------|

E|---------|----------------------------|---------|---------------------------------|
B|---------|----------------------------|---------|-3-------------------------3-----|
G|-2-------|-2------2----2----2----2----|-2-------|-2-----5----2----2----2----2-----|
D|-2-------|-2------2----2----2----2----|-2-------|-2-----5----2----2----2----2-----|
A|-0-------|-0------0----0----0----0----|-0-------|-------0----0----0----0----------|
E|---------|----------------------------|---------|---------------------------------|

E|-------------------------------------|-------------------------------------|---------------------------------|
B|---------------------3---------------|-----------3-------------------------|-3-------------------------3-----|
G|-5----2----2----2----2-----5----2----|-2----2----2-----5----2----2----2----|-2-----5----2----2----2----2-----|
D|-5----2----2----2----2-----5----2----|-2----2----2-----5----2----2----2----|-2-----5----2----2----2----2-----|
A|-0----0----0----0----------0----0----|-0----0----------0----0----0----0----|-------0----0----0----0----------|
E|-------------------------------------|-------------------------------------|---------------------------------|

E|-------------------------------------|-------------|---------|--------------------|
B|---------------------3---------------|-------------|---------|--------------------|
G|-5----2----2----2----2-----5----2----|-2------2----|-2-------|-2------2-----------|
D|-5----2----2----2----2-----5----2----|-2------2----|-2-------|-2------2-----------|
A|-0----0----0----0----------0----0----|-0------0----|-0-------|-0------0------0----|
E|-------------------------------------|-------------|---------|--------------------|

E|---------------------------------|-----------------------------|---------|--------------------|
B|-----------3---------------------|-3---------------------------|---------|--------------------|
G|-----------2-----5----2----------|-2-----5----2----2------2----|-2-------|-2------2-----------|
D|-----------2-----5----2----------|-2-----5----2----2------2----|-2-------|-2------2-----------|
A|-0----0----------0----0-----0----|-------0----0----0------0----|-0-------|-0------0------0----|
E|---------------------------------|-----------------------------|---------|--------------------|

E|---------------------------------|-----------------------------|---------|--------------------|
B|-----------3---------------------|-3---------------------------|---------|--------------------|
G|-----------2-----5----2----------|-2-----5----2----2------7----|-7-------|-7------7------7----|
D|-----------2-----5----2----------|-2-----5----2----2------7----|-7-------|-7------7------7----|
A|-0----0----------0----0-----0----|-------0----0----0------5----|-5-------|-5------5------5----|
E|---------------------------------|-----------------------------|---------|--------------------|

E|-----------------------------|-----------------------------|---------|--------------------|
B|-------8---------------------|-8----------------------0----|-0-------|-0------0-----------|
G|-7-----7-----10---7----------|-7-----10---7----7------9----|-9-------|-9------9------9----|
D|-7-----7-----10---7----------|-7-----10---7----7------9----|-9-------|-9------9------9----|
A|-5-----------8----5-----5----|-------8----5----5------7----|-7-------|-7------7------7----|
E|-----------------------------|-----------------------------|---------|--------------------|

E|------------------------0----|-----------------------------|-----------------------------|
B|-------10--------------------|-10---------0----0-----------|-----------------------------|
G|-9-----9-----12---9----------|-9-----12---9----9------5----|-5---------------------------|
D|-9-----9-----12---9----------|-9-----12---9----9-----------|-------7-----5----7-----7----|
A|-7-----------10---7----------|-------10---7----7-----------|-----------------------------|
E|-----------------------------|-----------------------------|-----------------------------|

E|---------------------------------|-----------------------------|---------------------------------|
B|---------------------------------|-----------------------------|---------------------------------|
G|-----------------------%----5----|-5---------------------------|-----------------------%----5----|
D|-7----5----7-----7-----%---------|-------7-----5----7-----7----|-7----5----7-----7-----%---------|
A|---------------------------------|-----------------------------|---------------------------------|
E|---------------------------------|-----------------------------|---------------------------------|

E|-----------------------------|---------------------------------|-----------------------------|
B|-----------------------------|---------------------------------|-----------------------------|
G|-5---------------------------|-----------------------%----5----|-5---------------------------|
D|-------7-----5----7-----7----|-7----5----7-----7-----%---------|-------7-----5----7-----7----|
A|-----------------------------|---------------------------------|-----------------------------|
E|-----------------------------|---------------------------------|-----------------------------|

E|-----------------------------------------|-------------------------------------|---------------------------------|
B|-----------------------------------------|-----------3-------------------------|-3-------------------------3-----|
G|-----------------------------------------|-2----2----2-----5----2----2----2----|-2-----5----2----2----2----2-----|
D|-7----6----5-----------------------------|-2----2----2-----5----2----2----2----|-2-----5----2----2----2----2-----|
A|----------------7----3----5----3----5----|-0----0----------0----0----0----0----|-------0----0----0----0----------|
E|-----------------------------------------|-------------------------------------|---------------------------------|

E|-------------------------------------|-------------------------------------|---------------------------------|
B|---------------------3---------------|-----------3-------------------------|-3-------------------------3-----|
G|-5----2----2----2----2-----5----2----|-2----2----2-----5----2----2----2----|-2-----5----2----2----2----2-----|
D|-5----2----2----2----2-----5----2----|-2----2----2-----5----2----2----2----|-2-----5----2----2----2----2-----|
A|-0----0----0----0----------0----0----|-0----0----------0----0----0----0----|-------0----0----0----0----------|
E|-------------------------------------|-------------------------------------|---------------------------------|

E|-------------------------------------|-------------|---------|--------------------|
B|---------------------3---------------|-------------|---------|--------------------|
G|-5----2----2----2----2-----5----2----|-2------2----|-2-------|-2------2-----------|
D|-5----2----2----2----2-----5----2----|-2------2----|-2-------|-2------2-----------|
A|-0----0----0----0----------0----0----|-0------0----|-0-------|-0------0------0----|
E|-------------------------------------|-------------|---------|--------------------|

E|---------------------------------|-----------------------------|---------|--------------------|
B|-----------3---------------------|-3---------------------------|---------|--------------------|
G|-----------2-----5----2----------|-2-----5----2----2------2----|-2-------|-2------2-----------|
D|-----------2-----5----2----------|-2-----5----2----2------2----|-2-------|-2------2-----------|
A|-0----0----------0----0-----0----|-------0----0----0------0----|-0-------|-0------0------0----|
E|---------------------------------|-----------------------------|---------|--------------------|

E|---------------------------------|-----------------------------|---------|--------------------|
B|-----------3---------------------|-3---------------------------|---------|--------------------|
G|-----------2-----5----2----------|-2-----5----2----2------7----|-7-------|-7------7------7----|
D|-----------2-----5----2----------|-2-----5----2----2------7----|-7-------|-7------7------7----|
A|-0----0----------0----0-----0----|-------0----0----0------5----|-5-------|-5------5------5----|
E|---------------------------------|-----------------------------|---------|--------------------|

E|-----------------------------|-----------------------------|---------|--------------------|
B|-------8---------------------|-8----------------------0----|-0-------|-0------0-----------|
G|-7-----7-----10---7----------|-7-----10---7----7------9----|-9-------|-9------9------9----|
D|-7-----7-----10---7----------|-7-----10---7----7------9----|-9-------|-9------9------9----|
A|-5-----------8----5-----5----|-------8----5----5------7----|-7-------|-7------7------7----|
E|-----------------------------|-----------------------------|---------|--------------------|

E|------------------------0----|-----------------------------|-----------------------------|
B|-------10--------------------|-10---------0----0-----------|-----------------------------|
G|-9-----9-----12---9----------|-9-----12---9----9------5----|-5---------------------------|
D|-9-----9-----12---9----------|-9-----12---9----9-----------|-------7-----5----7-----7----|
A|-7-----------10---7----------|-------10---7----7-----------|-----------------------------|
E|-----------------------------|-----------------------------|-----------------------------|

E|---------------------------------|-----------------------------|---------------------------------|
B|---------------------------------|-----------------------------|---------------------------------|
G|-----------------------%----5----|-5---------------------------|-----------------------%----5----|
D|-7----5----7-----7-----%---------|-------7-----5----7-----7----|-7----5----7-----7-----%---------|
A|---------------------------------|-----------------------------|---------------------------------|
E|---------------------------------|-----------------------------|---------------------------------|

E|-----------------------------|---------------------------------|-----------------------------|
B|-----------------------------|---------------------------------|-----------------------------|
G|-5---------------------------|-----------------------%----5----|-5---------------------------|
D|-------7-----5----7-----7----|-7----5----7-----7-----%---------|-------7-----5----7-----7----|
A|-----------------------------|---------------------------------|-----------------------------|
E|-----------------------------|---------------------------------|-----------------------------|

E|-----------------------------------------|-----------------------------------------|
B|-----------------------------------------|-----------------------------------------|
G|-----------------------------------------|-----------------------------------------|
D|-7----6----5-----------------------------|-----------------------------------------|
A|----------------7----3----5----3----5----|-5----5----3----5----5----3----5----5----|
E|-----------------------------------------|-----------------------------------------|

E|-------------------------------------|-----------------------------------------|-------------------------------------|
B|-------------------------------------|-----------------------------------------|-------------------------------------|
G|-------------------------------------|-----------------------------------------|-------------------------------------|
D|-------------------------------------|-----------------------------------------|-------------------------------------|
A|-3----5----5----3----5----5----3-----|-5----5----3----5----5----3----5----5----|-3----5----5----3----5----5----3-----|
E|-------------------------------------|-----------------------------------------|-------------------------------------|

E|-----------------------------------------|-------------------------------------|---------|
B|-----------------------------------------|-------------------------------------|---------|
G|-----------------------------------------|-------------------------------------|---------|
D|-----------------------------------------|-------------------------------------|---------|
A|-5----5----3----5----5----3----5----5----|-3----5----5----3----5----5----3-----|-5-------|
E|-----------------------------------------|-------------------------------------|---------|

E|---------|---------|-------------------|-------------------|-----------5---5---5-------5---5---5-------5---5---5---|
B|---------|---------|-------------------|--------------8----|-8-----8---------------8---------------8---------------|
G|---------|---------|---------5---------|---------%---------|-------------------------------------------------------|
D|---------|---------|--------------7----|-7-------%---------|-------------------------------------------------------|
A|-5-------|-5-------|-5-----------------|-------------------|-------------------------------------------------------|
E|---------|---------|-------------------|-------------------|-------------------------------------------------------|

E|------------------5---5-------5---5-------|-5---5----5---5---5---5-----------5-------5---5-------5---5---|
B|-8------8----8------------8-----------8---|--------------------------8---8-------8-----------8-----------|
G|------------------------------------------|--------------------------------------------------------------|
D|------------------------------------------|--------------------------------------------------------------|
A|------------------------------------------|--------------------------------------------------------------|
E|------------------------------------------|--------------------------------------------------------------|

E|---------5-------5---5-----------5-------5---5---5---5---5-------|-----5-----------5-----------5-----------5-----------------------|
B|-8---8-------8-----------8---8-------8-----------------------8---|-8-------8---8-------8---8-------8---5-------5---8---5-------5---|
G|-----------------------------------------------------------------|---------------------------------------------------------7-------|
D|-----------------------------------------------------------------|-----------------------------------------------------------------|
A|-----------------------------------------------------------------|-----------------------------------------------------------------|
E|-----------------------------------------------------------------|-----------------------------------------------------------------|

E|--------------------------------------------------------|-----------------------------------------|
B|--------------------------------------------------------|-----------------------------------------|
G|-7---5-------7------------------------------------------|-5----%----5--------------%---10----10---|
D|---------7-------5-------7-------5---7---5----5----2----|------%---------7----7----%--------------|
A|---------------------7-------7--------------------------|-----------------------------------------|
E|--------------------------------------------------------|-----------------------------------------|

E|-------------------------------------------------|----------------------------------------------|
B|-------------------------------------------------|----------------------------------------------|
G|-10---------------12-----------------------------|-12--12-------12---10---10----13--10--12--10--|
D|------12--10--12------12--10--12---12----12--10--|---------12-------------------------------12--|
A|-------------------------------------------------|----------------------------------------------|
E|-------------------------------------------------|----------------------------------------------|

E|--------------------------------------------------|--------------------------------10--9---|
B|--------------------------------------------------|----------------------------------------|
G|-----12-------------------------------------------|--------------------------%-------------|
D|-12------12--10--12---10---10---------------------|--------------------------%-------------|
A|--------------------------------10--12--10---10---|-10---8---------------------------------|
E|--------------------------------------------------|-----------10---10---10-----------------|

E|-7-------7-------------------------------------------------------|-----------------------------------------------------------------|
B|-----10------10--8-------10--------------------------------------|-------------------------------------------------10------8---9---|
G|---------------------9-------9---7-------9-----------------------|-------------------------9-------7---9---7-----------9-----------|
D|-------------------------------------9-------9---7---5---7-------|-5---7---9---9---9---9-------9---------------9-------------------|
A|-------------------------------------------------------------7---|-----------------------------------------------------------------|
E|-----------------------------------------------------------------|-----------------------------------------------------------------|

E|----------------------10---10----10---10---|-10----10--------------------|-----------------------------------------|
B|-8-------10------8-------------------------|-----------------------------|-----------------------------------------|
G|-----9-------9-----------------------------|-------------%-----%---------|-----------------------------------------|
D|-------------------------------------------|-------------%-----%----7----|-7----7----7----7----7----7----7----7----|
A|-------------------------------------------|-----------------------------|-----------------------------------------|
E|-------------------------------------------|-----------------------------|-----------------------------------------|

E|-----------------------------------------|-----------------------------------------|
B|-----------------------------------------|-----------------------------------------|
G|-----------------------------------------|-----------------------------------------|
D|-7----7----7----7----7----7----7----7----|-7----7----7----7----7----7----7----7----|
A|-----------------------------------------|-----------------------------------------|
E|-----------------------------------------|-----------------------------------------|

E|-----------------------------------------|-----------------------------------------|
B|-----------------------------------------|-----------------------------------------|
G|-----------------------------------------|-----------------------------------------|
D|-7----7----7----7----7----7----7----7----|-7----7----7----7----7----7----7----7----|
A|-----------------------------------------|-----------------------------------------|
E|-----------------------------------------|-----------------------------------------|

E|-----------------------------------------|-----------------------------------------|
B|-----------------------------------------|-----------------------------------------|
G|-----------------------------------------|-----------------------------------------|
D|-7----7----7----7----7----7----7----7----|-7----7----7----7----7----7----7----7----|
A|-----------------------------------------|-----------------------------------------|
E|-----------------------------------------|-----------------------------------------|

E|-----------------------------------------|-----------------------------------------|
B|-----------------------------------------|-----------------------------------------|
G|-----------------------------------------|-----------------------------------------|
D|-7----7----7----7----7----7----7----7----|-7----7----7----7----7----7----7----7----|
A|-----------------------------------------|-----------------------------------------|
E|-----------------------------------------|-----------------------------------------|

E|-----------------------------------------|-----------------------------------------|
B|-----------------------------------------|-----------------------------------------|
G|-----------------------------------------|-----------------------------------------|
D|-7----7----7----7----7----7----7----7----|-7----7----7----7----7----7----7----7----|
A|-----------------------------------------|-----------------------------------------|
E|-----------------------------------------|-----------------------------------------|

E|-------------------------------------|---------------------------------------|---------------------------------------|
B|-------------------------------------|-----------------------5---8---5-------|-5---------------------------8----5----|
G|-------%----5----5----5----5---------|-------%---------------------------7---|-----7---5-------------%---------------|
D|-7-----%----5----5----5----5----7----|-7-----%----7----7---------------------|-------------7---7-----%---------------|
A|-------------------------------------|---------------------------------------|---------------------------------------|
E|-------------------------------------|---------------------------------------|---------------------------------------|

E|-------------------------------------------------------------------------------------------------|
B|-8---5---5---8---5---5---8---5---5---8---5---5---11--8---8---11--8---8---11--8---8---12--9---9---|
G|-------------------------------------------------------------------------------------------------|
D|-------------------------------------------------------------------------------------------------|
A|-------------------------------------------------------------------------------------------------|
E|-------------------------------------------------------------------------------------------------|

E|-------------------------------------------------------------|------------17----------|
B|-13--10--10--13--10--10--13--10--10--14--11--11---------20---|-20----20--------20-----|
G|-------------------------------------------------%-----------|------------------------|
D|-------------------------------------------------%-----------|------------------------|
A|-------------------------------------------------------------|------------------------|
E|-------------------------------------------------------------|------------------------|

E|-------------------------------------|-------------------------------------|-------------------------------------|
B|-----------3-------------------------|-----------3-------------------------|-----------3-------------------------|
G|-%----2----2-----5----2----%----2----|-2----2----2-----5----2----%----2----|-2----2----2-----5----2----%----2----|
D|-%----2----2-----5----2----%----2----|-2----2----2-----5----2----%----2----|-2----2----2-----5----2----%----2----|
A|------0----------0----0---------0----|-0----0----------0----0---------0----|-0----0----------0----0---------0----|
E|-------------------------------------|-------------------------------------|-------------------------------------|

E|-------------------------------------|-------------------------------------|-------------------------------------|
B|-----------3-------------------------|-----------3-------------------------|-----------3-------------------------|
G|-2----2----2-----5----2----%----2----|-2----2----2-----5----2----%----2----|-2----2----2-----5----2----%----2----|
D|-2----2----2-----5----2----%----2----|-2----2----2-----5----2----%----2----|-2----2----2-----5----2----%----2----|
A|-0----0----------0----0---------0----|-0----0----------0----0---------0----|-0----0----------0----0---------0----|
E|-------------------------------------|-------------------------------------|-------------------------------------|

E|-------------------------------------|-------------------------------------|-------------------------------------|
B|-----------3-------------------------|-----------3-------------------------|-------------------------------------|
G|-2----2----2-----5----2----%----2----|-2----2----2-----5----2----%---------|---------------------------%---------|
D|-2----2----2-----5----2----%----2----|-2----2----2-----5----2----%----7----|-7----7----12----10---7----%----7----|
A|-0----0----------0----0---------0----|-0----0----------0----0---------5----|-5----5----10----8----5---------5----|
E|-------------------------------------|-------------------------------------|-------------------------------------|

E|-------------------------------------|-------------------------------------|-------------------------------------|
B|-------------------------------------|-------------------------------------|-------------------------------------|
G|---------------------------%---------|---------------------------%---------|---------------------------%---------|
D|-7----7----12----10---7----%----7----|-7----7----12----10---7----%----7----|-7----7----12----10---7----%----9----|
A|-5----5----10----8----5---------5----|-5----5----10----8----5---------5----|-5----5----10----8----5---------7----|
E|-------------------------------------|-------------------------------------|-------------------------------------|

E|-------------------------------------|-------------------------------------|-------------------------------------|
B|-------------------------------------|-------------------------------------|-------------------------------------|
G|---------------------------%---------|---------------------------%---------|---------------------------%---------|
D|-9----9----14----12---9----%----9----|-9----9----14----12---9----%----9----|-9----9----14----12---9----%----9----|
A|-7----7----12----10---7---------7----|-7----7----12----10---7---------7----|-7----7----12----10---7---------7----|
E|-------------------------------------|-------------------------------------|-------------------------------------|

E|-------------------------------------|-----------------------------|---------------------------------|
B|-------------------------------------|-----------------------------|---------------------------------|
G|---------------------------%----5----|-5---------------------------|-----------------------%----5----|
D|-9----9----14----12---9----%---------|-------7-----5----7-----7----|-7----5----7-----7-----%---------|
A|-7----7----12----10---7--------------|-----------------------------|---------------------------------|
E|-------------------------------------|-----------------------------|---------------------------------|

E|-----------------------------|---------------------------------|-----------------------------|
B|-----------------------------|---------------------------------|-----------------------------|
G|-5---------------------------|-----------------------%----5----|-5---------------------------|
D|-------7-----5----7-----7----|-7----5----7-----7-----%---------|-------7-----5----7-----7----|
A|-----------------------------|---------------------------------|-----------------------------|
E|-----------------------------|---------------------------------|-----------------------------|

E|---------------------------------|-----------------------------|-----------------------------------------|
B|---------------------------------|-----------------------------|-----------------------------------------|
G|-----------------------%----5----|-5---------------------------|-----------------------------------------|
D|-7----5----7-----7-----%---------|-------7-----5----7-----7----|-7----6----5-----------------------------|
A|---------------------------------|-----------------------------|----------------7----3----5----3----5----|
E|---------------------------------|-----------------------------|-----------------------------------------|

E|---------|---------|---------|
B|---------|---------|---------|
G|-2-------|-2-------|-%-------|
D|-2-------|-2-------|-%-------|
A|-0-------|-0-------|---------|
E|---------|---------|---------|
ACDC - Bad Boy Boogie
ACDC - Bad Boy Boogie.gp4