ACDC - Big Balls (2)

AC-DC



Title: Big Balls
Album: 
Artist: ACDC
Author: ACDC

Track 1: Guitar 1
E|----------------------------|----------------------------|----------------------------|
B|----------------------------|----------------------------|----------------------------|
G|-9------9-------------------|-5------5-------------------|-9------9-------------------|
D|-9------9----9----8----7----|-5------5----5----7----8----|-9------9----9----8----7----|
A|-7------7----7----6----5----|-3------3----3----5----6----|-7------7----7----6----5----|
E|----------------------------|----------------------------|----------------------------|

E|----------------------------|----------------------------|-------------------|---------------|
B|----------------------------|----------------------------|-------------------|---------------|
G|-5------5-------------------|-9------9-------------------|-5-----------------|---------------|
D|-5------5----5----7----8----|-9------9----9----8----7----|-5-------5----7----|-7-------7-----|
A|-3------3----3----5----6----|-7------7----7----6----5----|-3-------3----5----|-5-------5-----|
E|----------------------------|----------------------------|-------------------|---------------|

E|-2----2----2----2----2-----------|---------|---------|---------|---------|---------|
B|-0----0----0----0----0-----------|---------|---------|---------|---------|---------|
G|-2----2----2----2----2----%------|-9-------|---------|-9-------|---------|-9-------|
D|-1----1----1----1----1----%------|-9-------|-10------|-9-------|-10------|-9-------|
A|-2----2----2----2----2-----------|-7-------|-10------|-7-------|-10------|-7-------|
E|---------------------------------|---------|-8-------|---------|-8-------|---------|

E|---------|---------|-2----2----2----2----2-----------|-----------------------------------------|
B|---------|---------|-0----0----0----0----0-----------|-----------------------------------------|
G|---------|-7-------|-2----2----2----2----2----%------|-9----%----9----%----9----%----9----5----|
D|-10------|-7-------|-1----1----1----1----1----%------|-9----%----9----%----9----%----9----5----|
A|-10------|-5-------|-2----2----2----2----2-----------|-7---------7---------7---------7----3----|
E|-8-------|---------|---------------------------------|-----------------------------------------|

E|-----------------------------------------|-----------------------------------------|
B|-----------------------------------------|-----------------------------------------|
G|-6----%----6----%----6----%----6----8----|-9----%----9----%----9----%----9----5----|
D|-6----%----6----%----6----%----6----8----|-9----%----9----%----9----%----9----5----|
A|-4---------4---------4---------4----6----|-7---------7---------7---------7----3----|
E|-----------------------------------------|-----------------------------------------|

E|-----------------------------------------|-----------------------------------------|
B|-----------------------------------------|-----------------------------------------|
G|-6----%----6----%----6----%----6----8----|-9----%----9----%----9----%----9----5----|
D|-6----%----6----%----6----%----6----8----|-9----%----9----%----9----%----9----5----|
A|-4---------4---------4---------4----6----|-7---------7---------7---------7----3----|
E|-----------------------------------------|-----------------------------------------|

E|-----------------------------------------|---------------|-------------------------|
B|-----------------------------------------|---------------|-------------------------|
G|-6----%----6----%----6----%----6----%----|-5------7------|------------------%------|
D|-6----%----6----%----6----%----6----%----|-5------7------|-7-----7-----9----%------|
A|-4---------4---------4---------4---------|-3------5------|-7-----7-----9-----------|
E|-----------------------------------------|---------------|-5-----5-----7-----------|

E|-----------------------------------------|-----------------------------------------|
B|-----------------------------------------|-----------------------------------------|
G|-9----%----9----%----9----%----9----5----|-6----%----6----%----6----%----6----8----|
D|-9----%----9----%----9----%----9----5----|-6----%----6----%----6----%----6----8----|
A|-7---------7---------7---------7----3----|-4---------4---------4---------4----6----|
E|-----------------------------------------|-----------------------------------------|

E|-----------------------------------------|-----------------------------------------|
B|-----------------------------------------|-----------------------------------------|
G|-9----%----9----%----9----%----9----5----|-6----%----6----%----6----%----6----8----|
D|-9----%----9----%----9----%----9----5----|-6----%----6----%----6----%----6----8----|
A|-7---------7---------7---------7----3----|-4---------4---------4---------4----6----|
E|-----------------------------------------|-----------------------------------------|

E|-----------------------------------------|-----------------------------------------|
B|-----------------------------------------|-----------------------------------------|
G|-9----%----9----%----9----%----9----5----|-6----%----6----%----6----%----6----%----|
D|-9----%----9----%----9----%----9----5----|-6----%----6----%----6----%----6----%----|
A|-7---------7---------7---------7----3----|-4---------4---------4---------4---------|
E|-----------------------------------------|-----------------------------------------|

E|---------------|-------------------------|---------|
B|---------------|-------------------------|---------|
G|-5------7------|------------------%------|-9-------|
D|-5------7------|-7-----7-----9----%------|-9-------|
A|-3------5------|-7-----7-----9-----------|-7-------|
E|---------------|-5-----5-----7-----------|---------|
ACDC - Big Balls (2)
ACDC - Big Balls (2).gp3