ACDC - Burnin ' Alive

AC-DC



Title: Burnin' Alive
Album: Ballbreaker
Artist: AC/DC
Author: Malcolm Young / Angus Young

Track 1: Guitare 1
E|---------|-----------------------------|---------|-----------------------------|---------|
B|---------|-----------------------------|---------|-----------------------------|---------|
G|-6-------|-6-----%----2----2-----------|---------|--------4----4----------6----|-6-------|
D|-6-------|-6-----%----2----2------2----|-2-------|-2------4----4----------6----|-6-------|
A|-4-------|-4----------0----0------2----|-2-------|-2------2----2-----X----4----|-4-------|
E|---------|------------------------0----|-0-------|-0-----------------X---------|---------|

E|-------------------------|---------|---------------------------------|---------|-------------------------------------|
B|-------------------------|---------|---------------------------------|---------|-------------------------------------|
G|--------2----2-----------|---------|------------4----4----------6----|-6-------|----------------2----2---------------|
D|-2------2----2------2----|-2-------|-2-----X----4----4-----X----6----|-6-------|----------------2----2----------2----|
A|-2------0----0------2----|-2-------|-2-----X----2----2-----X----4----|-4-------|----------------0----0-----0----2----|
E|-0------------------0----|-0-------|-0-------------------------------|---------|-0----2----4---------------0----0----|

E|---------|-----------------------------|---------|-------------------------------------|
B|---------|-----------------------------|---------|-------------------------------------|
G|---------|--------4----4----------6----|-6-------|----------------2----2---------------|
D|-2-------|-2------4----4----------6----|-6-------|----------------2----2----------2----|
A|-2-------|-2------2----2-----X----4----|-4-------|----------------0----0-----0----2----|
E|-0-------|-0-----------------X---------|---------|-0----2----4---------------0----0----|

E|---------|-----------------------------------------|-----------------------------|
B|---------|-----------------------------------------|-----------------------------|
G|---------|----------------4----4----4----4---------|-6-----6-----6----6----6-----|
D|-2-------|----------------4----4----4----4---------|-6-----6-----6----6----6-----|
A|-2-------|----------------2----2----2----2----0----|-4-----4-----4----4----4-----|
E|-0-------|-0----2----4------------------------0----|-----------------------------|

E|-------------------------------------|-------0-------|-----------------------------------------|
B|-------------------------------------|-------0-------|-----------------------------------------|
G|----------------2----2---------------|-------1-------|----------------4----4----4----4---------|
D|----------------2----2---------------|-------2-------|----------------4----4----4----4---------|
A|----------------0----0----------2----|-2-----2-------|----------------2----2----2----2----0----|
E|-0----2----4---------------4----0----|-0-----0-------|-0----2----4------------------------0----|

E|-----------------------------|-----------------------------------------|-----------0---------------0-----|
B|-----------------------------|-----------------------------------------|-----------0---------------0-----|
G|-6-----6-----6----6----6-----|----------------2----2----2--------------|-----------1---------------1-----|
D|-6-----6-----6----6----6-----|-----------0----2----2----2--------------|-----------2---------------2-----|
A|-4-----4-----4----4----4-----|----------------0----0----0---------2----|-2----2----2-----2----2----2-----|
E|-----------------------------|-0----2----4-------------------4----0----|-0----0----0-----0----0----0-----|

E|-----------------------------------------|-------------------------------------|-------------------------------------|
B|-----------------------------------------|-------------------------------------|-------------------------------------|
G|----------------4----4----4----4---------|-6------------------------------6----|-6-----------------------------------|
D|----------------4----4----4----4---------|-6------------------------------6----|-6-----------------------------------|
A|----------------2----2----2----2----0----|-4-------------------------2----4----|-4-------------------------2---------|
E|-0----2----4------------------------0----|-------0----0----0----4--------------|-------0----0----0----4---------0----|

E|-------------------------------------|-------------------------------------|-------------------------------------|
B|-------------------------------------|-------------------------------------|-------------------------------------|
G|-6------------------------------6----|-6-----------------------------------|-6------------------------------6----|
D|-6------------------------------6----|-6-----------------------------------|-6------------------------------6----|
A|-4-------------------------2----4----|-4-------------------------2---------|-4-------------------------2----4----|
E|-------0----0----0----4--------------|-------0----0----0----4---------0----|-------0----0----0----4--------------|

E|-------------------------------------|-------------------------------------|-------------------------------------|
B|-------------------------------------|-------------------------------------|-------------------------------------|
G|-6-----------------------------------|-6------------------------------6----|-6-----------------------------------|
D|-6-----------------------------------|-6------------------------------6----|-6-----------------------------------|
A|-4-------------------------2---------|-4-------------------------2----4----|-4-------------------------2---------|
E|-------0----0----0----4---------0----|-------0----0----0----4--------------|-------0----0----0----4---------0----|

E|-----------------------------------------|-----------------------------------------|
B|-----------------------------------------|-----------------------------------------|
G|-6----6----6----4---------%--------------|-3----3----3----1------------------------|
D|-6----6----6----4---------%--------------|-4----4----4----2------------------------|
A|-4----4----4----2----X---------X---------|-4----4----4----2----X---------X---------|
E|------------------------------------0----|-2----2----2----0---------X---------X----|

E|-----------------------------------------|-----------------------------------------|
B|-----------------------------------------|-----------------------------------------|
G|-6----6----6----4---------%--------------|-3----3----3-----------------------------|
D|-6----6----6----4---------%--------------|-4----4----4-----------------------------|
A|-4----4----4----2----X---------X---------|-4----4----4----2--------------2----2----|
E|------------------------------------0----|-2----2----2----0----2----4--------------|

E|-----------------------------------------|-----------------------------------------|
B|-----------------------------------------|-----------------------------------------|
G|-6----6----6----4------------------------|-3----3----3----1---------%--------------|
D|-6----6----6----4----X---------X---------|-4----4----4----2---------%--------------|
A|-4----4----4----2---------X---------X----|-4----4----4----2----X---------X---------|
E|-----------------------------------------|-2----2----2----0-------------------X----|

E|-----------------------------------------|-------------------|---------|-----------------------------------------|
B|-----------------------------------------|-------------------|---------|-----------------------------------------|
G|-6----6----6----4----%---------%---------|-3------------1----|-1-------|-----------------------------------------|
D|-6----6----6----4----%---------%---------|-4------------2----|-2-------|-2----2----2----2----2----2----2----2----|
A|-4----4----4----2---------2---------2----|-4-------X----2----|-2-------|-2----2----2----2----2----2----2----2----|
E|--------------------------0---------0----|-2-------X----0----|-0-------|-0----0----0----0----0----0----0----0----|

E|-----------------------------|-----------------------------------------|-----------0---------------0-----|
B|-----------------------------|-----------------------------------------|-----------0---------------0-----|
G|-6-----6-----6----6----6-----|----------------2----2----2--------------|-----------1---------------1-----|
D|-6-----6-----6----6----6-----|-----------0----2----2----2--------------|-----------2---------------2-----|
A|-4-----4-----4----4----4-----|----------------0----0----0---------2----|-2----2----2-----2----2----2-----|
E|-----------------------------|-0----2----4-------------------4----0----|-0----0----0-----0----0----0-----|

E|-----------------------------------------|-----------------------------|-----------------------------------------|
B|-----------------------------------------|-----------------------------|-----------------------------------------|
G|----------------4----4----4----4---------|-6-----6-----6----6----6-----|----------------2----2----2--------------|
D|----------------4----4----4----4---------|-6-----6-----6----6----6-----|-----------0----2----2----2--------------|
A|----------------2----2----2----2----0----|-4-----4-----4----4----4-----|----------------0----0----0---------2----|
E|-0----2----4------------------------0----|-----------------------------|-0----2----4-------------------4----0----|

E|-----------0---------------0-----|-----------------------------------------|-----------------------------|
B|-----------0---------------0-----|-----------------------------------------|-----------------------------|
G|-----------1---------------1-----|----------------4----4----4----4---------|-6-----6-----6----6-----6----|
D|-----------2---------------2-----|----------------4----4----4----4---------|-6-----6-----6----6-----6----|
A|-2----2----2-----2----2----2-----|----------------2----2----2----2----0----|-4-----4-----4----4-----4----|
E|-0----0----0-----0----0----0-----|-0----2----4------------------------0----|-----------------------------|

E|-----------------------------------------|-----------------------------|-----------------------------------------|
B|-----------------------------------------|-----------------------------|-----------------------------------------|
G|-4----4----4----4------------------------|-6-----6-----6----6-----6----|-4----4----4----4------------------------|
D|-4----4----4----4----2----2----2----2----|-6-----6-----6----6-----6----|-4----4----4----4----2----2----2----2----|
A|-2----2----2----2----2----2----2----2----|-4-----4-----4----4-----4----|-2----2----2----2----2----2----2----2----|
E|---------------------0----0----0----0----|-----------------------------|---------------------0----0----0----0----|

E|---------------------------------|-----------------------------------------|-------0-------|
B|---------------------------------|-----------------------------------------|-------0-------|
G|-6-----6-----6----6----6----6----|-6----4----4----4----4----2----2----2----|-------1-------|
D|-6-----6-----6----6----6----6----|-6----4----4----4----4----2----2----2----|-------2-------|
A|-4-----4-----4----4----4----4----|-4----2----2----2----2----0----0----0----|-2-------------|
E|---------------------------------|-----------------------------------------|-0-------------|

E|-----------------------------------------|-----------------------------|-------------------------------------|
B|-----------------------------------------|-----------------------------|-------------------------------------|
G|----------------4----4----4----4---------|-6-----6-----6----6----6-----|----------------2----2---------------|
D|----------------4----4----4----4---------|-6-----6-----6----6----6-----|----------------2----2---------------|
A|----------------2----2----2----2----X----|-4-----4-----4----4----4-----|----------------0----0----------2----|
E|-0----2----4------------------------X----|-----------------------------|-0----2----4---------------4----0----|

E|-------0-------|-----------------------------------------|---------|---------------------------------|
B|-------0-------|-----------------------------------------|---------|---------------------------------|
G|-------1-------|----------------4----4----4----4---------|-6-------|-6----4----4-----4---------------|
D|-------2-------|----------------4----4----4----4---------|-6-------|-6----4----4-----4----2-----2----|
A|-2-----2-------|----------------2----2----2----2----0----|-4-------|-4----2----2-----2----2-----2----|
E|-0-----0-------|-0----2----4------------------------0----|---------|----------------------0-----0----|

E|---------|---------------------------------|---------|---------------------------------|
B|---------|---------------------------------|---------|---------------------------------|
G|-6-------|-6----4----4-----4---------------|-6-------|-6----4----4-----4---------------|
D|-6-------|-6----4----4-----4----2-----2----|-6-------|-6----4----4-----4----2-----2----|
A|-4-------|-4----2----2-----2----2-----2----|-4-------|-4----2----2-----2----2-----2----|
E|---------|----------------------0-----0----|---------|----------------------0-----0----|

E|---------|-----------------------------------------|-----------------------------------------|
B|---------|-----------------------------------------|-----------------------------------------|
G|-6-------|-X----4----4----4----4-------------------|-6----6----6----6----6----6----6----2----|
D|-6-------|-X----4----4----4----4----2----2----2----|-6----6----6----6----6----6----6----2----|
A|-4-------|-X----2----2----2----2----2----2----2----|-4----4----4----4----4----4----4----0----|
E|---------|--------------------------0----0----0----|-----------------------------------------|

E|-----------------------------------------|-----------------------------------------|
B|-----------------------------------------|-----------------------------------------|
G|-2----2----2----2----2----2----X----4----|-4----4----4----4----4----4----X----3----|
D|-2----2----2----2----2----2----X----4----|-4----4----4----4----4----4----X----4----|
A|-0----0----0----0----0----0----X----2----|-2----2----2----2----2----2----X----4----|
E|-----------------------------------------|------------------------------------2----|

E|-----------------------------------------|-----------------------------------------|
B|-----------------------------------------|-----------------------------------------|
G|-3----3----3----3----3----3----3---------|-6----6----6----6----6----6----6----2----|
D|-4----4----4----4----4----4----4----X----|-6----6----6----6----6----6----6----2----|
A|-4----4----4----4----4----4----4----X----|-4----4----4----4----4----4----4----0----|
E|-2----2----2----2----2----2----2----X----|-----------------------------------------|

E|-----------------------------------------|-----------------------------------------|
B|-----------------------------------------|-----------------------------------------|
G|-2----2----2----2----2----2----2----X----|-4----4----4----4----4----4----4----4----|
D|-2----2----2----2----2----2----2----X----|-4----4----4----4----4----4----4----4----|
A|-0----0----0----0----0----0----0----X----|-2----2----2----2----2----2----2----2----|
E|-----------------------------------------|-----------------------------------------|

E|-----------------------------------------|-----------------------------|-----------------------------------------|
B|-----------------------------------------|-----------------------------|-----------------------------------------|
G|-4----4----4----4----4----4----4----X----|-6-----6-----6----6----6-----|----------------2----2----2--------------|
D|-4----4----4----4----4----4----4----X----|-6-----6-----6----6----6-----|-----------0----2----2----2--------------|
A|-2----2----2----2----2----2----2----X----|-4-----4-----4----4----4-----|----------------0----0----0---------2----|
E|-----------------------------------------|-----------------------------|-0----2----4-------------------4----0----|

E|-----------0---------------0-----|-----------------------------------------|-----------------------------|
B|-----------0---------------0-----|-----------------------------------------|-----------------------------|
G|-----------1---------------1-----|----------------4----4----4----4---------|-6-----6-----6----6----6-----|
D|-----------2---------------2-----|----------------4----4----4----4---------|-6-----6-----6----6----6-----|
A|-2----2----2-----2----2----2-----|----------------2----2----2----2----0----|-4-----4-----4----4----4-----|
E|-0----0----0-----0----0----0-----|-0----2----4------------------------0----|-----------------------------|

E|-----------------------------------------|-----------0---------------0-----|-----------------------------------------|
B|-----------------------------------------|-----------0---------------0-----|-----------------------------------------|
G|----------------2----2----2--------------|-----------1---------------1-----|----------------4----4----4----4---------|
D|-----------0----2----2----2--------------|-----------2---------------2-----|----------------4----4----4----4---------|
A|----------------0----0----0---------2----|-2----2----2-----2----2----2-----|----------------2----2----2----2----0----|
E|-0----2----4-------------------4----0----|-0----0----0-----0----0----0-----|-0----2----4------------------------0----|

E|-----------------------------|-----------------------------------------|-----------0---------------0-----|
B|-----------------------------|-----------------------------------------|-----------0---------------0-----|
G|-6-----6-----6----6----6-----|----------------2----2----2--------------|-----------1---------------1-----|
D|-6-----6-----6----6----6-----|-----------0----2----2----2--------------|-----------2---------------2-----|
A|-4-----4-----4----4----4-----|----------------0----0----0---------2----|-2----2----2-----2----2----2-----|
E|-----------------------------|-0----2----4-------------------4----0----|-0----0----0-----0----0----0-----|

E|-----------------------------------------|-----------------------------|-----------------------------------------|
B|-----------------------------------------|-----------------------------|-----------------------------------------|
G|----------------4----4----4----4---------|-6-----6-----6----6----6-----|----------------2----2----2--------------|
D|----------------4----4----4----4---------|-6-----6-----6----6----6-----|-----------0----2----2----2--------------|
A|----------------2----2----2----2----0----|-4-----4-----4----4----4-----|----------------0----0----0---------2----|
E|-0----2----4------------------------0----|-----------------------------|-0----2----4-------------------4----0----|

E|-----------0---------------0-----|-----------------------------------------|---------------------------------|
B|-----------0---------------0-----|-----------------------------------------|---------------------------------|
G|-----------1---------------1-----|----------------4----4----4----4---------|-6-----6-----6----6----6----6----|
D|-----------2---------------2-----|----------------4----4----4----4---------|-6-----6-----6----6----6----6----|
A|-2----2----2-----2----2----2-----|----------------2----2----2----2----0----|-4-----4-----4----4----4----4----|
E|-0----0----0-----0----0----0-----|-0----2----4------------------------0----|---------------------------------|

E|-----------------------------------------|---------------------------------|-----------------------------------------|
B|-----------------------------------------|---------------------------------|-----------------------------------------|
G|-6----4----4----4----4----1----1----1----|-6-----6-----6----6----6----6----|-6----4----4----4----4----1----1----1----|
D|-6----4----4----4----4----2----2----2----|-6-----6-----6----6----6----6----|-6----4----4----4----4----2----2----2----|
A|-4----2----2----2----2----2----2----2----|-4-----4-----4----4----4----4----|-4----2----2----2----2----2----2----2----|
E|--------------------------0----0----0----|---------------------------------|--------------------------0----0----0----|

E|---------------------------------|-----------------------------------------|---------------------------------|
B|---------------------------------|-----------------------------------------|---------------------------------|
G|-6-----6-----6----6----6----6----|-6----4----4----4----4----1----1----1----|-6-----6-----6----6----6----6----|
D|-6-----6-----6----6----6----6----|-6----4----4----4----4----2----2----2----|-6-----6-----6----6----6----6----|
A|-4-----4-----4----4----4----4----|-4----2----2----2----2----2----2----2----|-4-----4-----4----4----4----4----|
E|---------------------------------|--------------------------0----0----0----|---------------------------------|

E|-----------------------------------------|---------------------------------|-----------------------------------------|
B|-----------------------------------------|---------------------------------|-----------------------------------------|
G|-6----4----4----4----4----1----1----1----|-6-----6-----6----6----6----6----|-6----4----4----4----4----1----1----1----|
D|-6----4----4----4----4----2----2----2----|-6-----6-----6----6----6----6----|-6----4----4----4----4----2----2----2----|
A|-4----2----2----2----2----2----2----2----|-4-----4-----4----4----4----4----|-4----2----2----2----2----2----2----2----|
E|--------------------------0----0----0----|---------------------------------|--------------------------0----0----0----|

E|---------------------------------|-----------------------------------------|---------------------------------|
B|---------------------------------|-----------------------------------------|---------------------------------|
G|-6-----6-----6----6----6----6----|-6----4----4----4----4----1----1----1----|-6-----6-----6----6----6----6----|
D|-6-----6-----6----6----6----6----|-6----4----4----4----4----2----2----2----|-6-----6-----6----6----6----6----|
A|-4-----4-----4----4----4----4----|-4----2----2----2----2----2----2----2----|-4-----4-----4----4----4----4----|
E|---------------------------------|--------------------------0----0----0----|---------------------------------|

E|-----------------------------------------|---------------------------------|---------------------------------|
B|-----------------------------------------|---------------------------------|---------------------------------|
G|-6----4----4----4----4----1----1----1----|-6-----6-----6----6----6----6----|-6----4----4----4----4----1------|
D|-6----4----4----4----4----2----2----2----|-6-----6-----6----6----6----6----|-6----4----4----4----4----2------|
A|-4----2----2----2----2----2----2----2----|-4-----4-----4----4----4----4----|-4----2----2----2----2----2------|
E|--------------------------0----0----0----|---------------------------------|--------------------------0------|

E|--------|----------------------------|---------|---------|------------------------|
B|--------|----------------------------|---------|---------|------------------------|
G|-1------|----------------4----4------|-4-------|-4-------|-4------4-----6----%----|
D|-2------|----------------4----4------|-4-------|-4-------|-4------4-----6----%----|
A|-2------|----------------2----2------|-2-------|-2-------|-2------2-----4---------|
E|-0------|-0----2----4----------------|---------|---------|------------------------|

E|---------|
B|---------|
G|-%-------|
D|-%-------|
A|---------|
E|---------|
ACDC - Burnin ' Alive
ACDC - Burnin_' Alive.gp3