ACDC - Can 't Stand Still (3)

AC-DC



Title: Can't Stand Still
Album: Stiff Upper Lip
Artist: ACDC
Author: Angus & Malcom Young

Track 1: Guitare 1
E|-5-------5-------4-------4-------2-------2-------4-------4-------|-5-------5-------4-------4-------2-------2-------4-------4-------|
B|-----------------------------------------------------------------|-----------------------------------------------------------------|
G|-----4-------4-------4-------4-------4-------4-------4-------4---|-----4-------4-------4-------4-------4-------4-------4-------4---|
D|-----------------------------------------------------------------|-----------------------------------------------------------------|
A|-----------------------------------------------------------------|-----------------------------------------------------------------|
E|-----------------------------------------------------------------|-----------------------------------------------------------------|

E|-5-------5-------4-------4-------2-------2-------4-------4-------|-5-------5-------4-------4-------2-------2-------4-------4-------|
B|-----------------------------------------------------------------|-----------------------------------------------------------------|
G|-----4-------4-------4-------4-------4-------4-------4-------4---|-----4-------4-------4-------4-------4-------4-------4-------9---|
D|-----------------------------------------------------------------|-----------------------------------------------------------------|
A|-----------------------------------------------------------------|-----------------------------------------------------------------|
E|-----------------------------------------------------------------|-----------------------------------------------------------------|

E|-7-------7-------7-------7-------10------10------9-------9-------|-7-------7-------7-------7-------10------10------9-------9-------|
B|-----------------------------------------------------------------|-----------------------------------------------------------------|
G|-----9-------9-------9-------9-------9-------9-------9-------9---|-----9-------9-------9-------9-------9-------9-------9-------4---|
D|-----------------------------------------------------------------|-----------------------------------------------------------------|
A|-----------------------------------------------------------------|-----------------------------------------------------------------|
E|-----------------------------------------------------------------|-----------------------------------------------------------------|

E|-5-------5-------4-------4-------2-------2-------4-------4-------|-5-------5-------4-------4-------2-------2-------4---------------|
B|-----------------------------------------------------------------|-----------------------------------------------------------------|
G|-----4-------4-------4-------4-------4-------4-------4-------4---|-----4-------4-------4-------4-------4-------4-------4---11--11--|
D|-----------------------------------------------------------------|-----------------------------------------------------------------|
A|-----------------------------------------------------------------|-----------------------------------------------------------------|
E|-----------------------------------------------------------------|-----------------------------------------------------------------|

E|-9-------9-------11------11------12------12------11------11------|-7-------7-------7-------7-------10------10------9-------9-------|
B|-----------------------------------------------------------------|-----------------------------------------------------------------|
G|-----11------11------11------11------11------11------11------9---|-----9-------9-------9-------9-------9-------9-------9-------4---|
D|-----------------------------------------------------------------|-----------------------------------------------------------------|
A|-----------------------------------------------------------------|-----------------------------------------------------------------|
E|-----------------------------------------------------------------|-----------------------------------------------------------------|

E|-5-------5-------4-------4-------2-------2-------4-------4-------|-5-------5-------4-------4-------2-------2-------4-------4-------|
B|-----------------------------------------------------------------|-----------------------------------------------------------------|
G|-----4-------4-------4-------4-------4-------4-------4-------4---|-----4-------4-------4-------4-------4-------4-------4-------4---|
D|-----------------------------------------------------------------|-----------------------------------------------------------------|
A|-----------------------------------------------------------------|-----------------------------------------------------------------|
E|-----------------------------------------------------------------|-----------------------------------------------------------------|

E|-5-------5-------4-------4-------2-------2-------4-------4-------|-5-------5-------4-------4-------2-------2-------4-------4-------|
B|-----------------------------------------------------------------|-----------------------------------------------------------------|
G|-----4-------4-------4-------4-------4-------4-------4-------4---|-----4-------4-------4-------4-------4-------4-------4-------4---|
D|-----------------------------------------------------------------|-----------------------------------------------------------------|
A|-----------------------------------------------------------------|-----------------------------------------------------------------|
E|-----------------------------------------------------------------|-----------------------------------------------------------------|

E|-5-------5-------4-------4-------2-------2-------4-------4-------|-5-------5-------4-------4-------2-------2-------4-------4-------|
B|-----------------------------------------------------------------|-----------------------------------------------------------------|
G|-----4-------4-------4-------4-------4-------4-------4-------4---|-----4-------4-------4-------4-------4-------4-------4-------9---|
D|-----------------------------------------------------------------|-----------------------------------------------------------------|
A|-----------------------------------------------------------------|-----------------------------------------------------------------|
E|-----------------------------------------------------------------|-----------------------------------------------------------------|

E|-7-------7-------7-------7-------10------10------9-------9-------|-7-------7-------7-------7-------10------10------9-------9-------|
B|-----------------------------------------------------------------|-----------------------------------------------------------------|
G|-----9-------9-------9-------9-------9-------9-------9-------9---|-----9-------9-------9-------9-------9-------9-------9-------4---|
D|-----------------------------------------------------------------|-----------------------------------------------------------------|
A|-----------------------------------------------------------------|-----------------------------------------------------------------|
E|-----------------------------------------------------------------|-----------------------------------------------------------------|

E|-5-------5-------4-------4-------2-------2-------4-------4-------|-5-------5-------4-------4-------2-------2-------4---------------|
B|-----------------------------------------------------------------|-----------------------------------------------------------------|
G|-----4-------4-------4-------4-------4-------4-------4-------4---|-----4-------4-------4-------4-------4-------4-------4---11--11--|
D|-----------------------------------------------------------------|-----------------------------------------------------------------|
A|-----------------------------------------------------------------|-----------------------------------------------------------------|
E|-----------------------------------------------------------------|-----------------------------------------------------------------|

E|-9-------9-------11------11------12------12------11------11------|-7-------7-------7-------7-------10------10------9-------9-------|
B|-----------------------------------------------------------------|-----------------------------------------------------------------|
G|-----11------11------11------11------11------11------11------9---|-----9-------9-------9-------9-------9-------9-------9-------4---|
D|-----------------------------------------------------------------|-----------------------------------------------------------------|
A|-----------------------------------------------------------------|-----------------------------------------------------------------|
E|-----------------------------------------------------------------|-----------------------------------------------------------------|

E|-5-------5-------4-------4-------2-------2-------4-------4-------|-5-------5-------4-------4-------2-------2-------4-------4-------|
B|-----------------------------------------------------------------|-----------------------------------------------------------------|
G|-----4-------4-------4-------4-------4-------4-------4-------4---|-----4-------4-------4-------4-------4-------4-------4-------4---|
D|-----------------------------------------------------------------|-----------------------------------------------------------------|
A|-----------------------------------------------------------------|-----------------------------------------------------------------|
E|-----------------------------------------------------------------|-----------------------------------------------------------------|

E|-5-------5-------4-------4-------2-------2-------4-------4-------|-5-------5-------4-------4-------2-------2-------4-------4-------|
B|-----------------------------------------------------------------|-----------------------------------------------------------------|
G|-----4-------4-------4-------4-------4-------4-------4-------4---|-----4-------4-------4-------4-------4-------4-------4-------4---|
D|-----------------------------------------------------------------|-----------------------------------------------------------------|
A|-----------------------------------------------------------------|-----------------------------------------------------------------|
E|-----------------------------------------------------------------|-----------------------------------------------------------------|

E|-5-------5-------4-------4-------2-------2-------4-------4-------|-5-------5-------4-------4-------2-------2-------4-------4-------|
B|-----------------------------------------------------------------|-----------------------------------------------------------------|
G|-----4-------4-------4-------4-------4-------4-------4-------4---|-----4-------4-------4-------4-------4-------4-------4-------9---|
D|-----------------------------------------------------------------|-----------------------------------------------------------------|
A|-----------------------------------------------------------------|-----------------------------------------------------------------|
E|-----------------------------------------------------------------|-----------------------------------------------------------------|

E|-7-------7-------7-------7-------10------10------9-------9-------|-7-------7-------7-------7-------10------10------9-------9-------|
B|-----------------------------------------------------------------|-----------------------------------------------------------------|
G|-----9-------9-------9-------9-------9-------9-------9-------9---|-----9-------9-------9-------9-------9-------9-------9-------4---|
D|-----------------------------------------------------------------|-----------------------------------------------------------------|
A|-----------------------------------------------------------------|-----------------------------------------------------------------|
E|-----------------------------------------------------------------|-----------------------------------------------------------------|

E|-5-------5-------4-------4-------2-------2-------4-------4-------|-5-------5-------4-------4-------2-------2-------4---------------|
B|-----------------------------------------------------------------|-----------------------------------------------------------------|
G|-----4-------4-------4-------4-------4-------4-------4-------4---|-----4-------4-------4-------4-------4-------4-------4---11--11--|
D|-----------------------------------------------------------------|-----------------------------------------------------------------|
A|-----------------------------------------------------------------|-----------------------------------------------------------------|
E|-----------------------------------------------------------------|-----------------------------------------------------------------|

E|-9-------9-------11------11------12------12------11------11------|-7-------7-------7-------7-------10------10------9-------9-------|
B|-----------------------------------------------------------------|-----------------------------------------------------------------|
G|-----11------11------11------11------11------11------11------9---|-----9-------9-------9-------9-------9-------9-------9-------4---|
D|-----------------------------------------------------------------|-----------------------------------------------------------------|
A|-----------------------------------------------------------------|-----------------------------------------------------------------|
E|-----------------------------------------------------------------|-----------------------------------------------------------------|

E|-5-------5-------4-------4-------2-------2-------4-------4-------|-5-------5-------4-------4-------2-------2-------4-------4-------|
B|-----------------------------------------------------------------|-----------------------------------------------------------------|
G|-----4-------4-------4-------4-------4-------4-------4-------4---|-----4-------4-------4-------4-------4-------4-------4-------4---|
D|-----------------------------------------------------------------|-----------------------------------------------------------------|
A|-----------------------------------------------------------------|-----------------------------------------------------------------|
E|-----------------------------------------------------------------|-----------------------------------------------------------------|

E|-5-------5-------4-------4-------2-------2-------4-------4-------|-5-------5-------4-------4-------2-------2-------4-------4-------|
B|-----------------------------------------------------------------|-----------------------------------------------------------------|
G|-----4-------4-------4-------4-------4-------4-------4-------4---|-----4-------4-------4-------4-------4-------4-------4-------4---|
D|-----------------------------------------------------------------|-----------------------------------------------------------------|
A|-----------------------------------------------------------------|-----------------------------------------------------------------|
E|-----------------------------------------------------------------|-----------------------------------------------------------------|

E|-5-------5-------4-------4-------2-------2-------4-------4-------|-5-------5-------4-------4-------2-------2-------4-------4-------|
B|-----------------------------------------------------------------|-----------------------------------------------------------------|
G|-----4-------4-------4-------4-------4-------4-------4-------4---|-----4-------4-------4-------4-------4-------4-------4-------9---|
D|-----------------------------------------------------------------|-----------------------------------------------------------------|
A|-----------------------------------------------------------------|-----------------------------------------------------------------|
E|-----------------------------------------------------------------|-----------------------------------------------------------------|

E|-7-------7-------7-------7-------10------10------9-------9-------|-7-------7-------7-------7-------10------10------9-------9-------|
B|-----------------------------------------------------------------|-----------------------------------------------------------------|
G|-----9-------9-------9-------9-------9-------9-------9-------9---|-----9-------9-------9-------9-------9-------9-------9-------4---|
D|-----------------------------------------------------------------|-----------------------------------------------------------------|
A|-----------------------------------------------------------------|-----------------------------------------------------------------|
E|-----------------------------------------------------------------|-----------------------------------------------------------------|

E|-5-------5-------4-------4-------2-------2-------4-------4-------|-5-------5-------4-------4-------2-------2-------4---------------|
B|-----------------------------------------------------------------|-----------------------------------------------------------------|
G|-----4-------4-------4-------4-------4-------4-------4-------4---|-----4-------4-------4-------4-------4-------4-------4---11--11--|
D|-----------------------------------------------------------------|-----------------------------------------------------------------|
A|-----------------------------------------------------------------|-----------------------------------------------------------------|
E|-----------------------------------------------------------------|-----------------------------------------------------------------|

E|-9-------9-------11------11------12------12------11------11------|-7-------7-------7-------7-------10------10------9-------9-------|
B|-----------------------------------------------------------------|-----------------------------------------------------------------|
G|-----11------11------11------11------11------11------11------9---|-----9-------9-------9-------9-------9-------9-------9-------4---|
D|-----------------------------------------------------------------|-----------------------------------------------------------------|
A|-----------------------------------------------------------------|-----------------------------------------------------------------|
E|-----------------------------------------------------------------|-----------------------------------------------------------------|

E|-5-------5-------4-------4-------2-------2-------4-------4-------|-5-------5-------4-------4-------2-------2-------4-------4-------|
B|-----------------------------------------------------------------|-----------------------------------------------------------------|
G|-----4-------4-------4-------4-------4-------4-------4-------4---|-----4-------4-------4-------4-------4-------4-------4-------4---|
D|-----------------------------------------------------------------|-----------------------------------------------------------------|
A|-----------------------------------------------------------------|-----------------------------------------------------------------|
E|-----------------------------------------------------------------|-----------------------------------------------------------------|

E|-5-------5-------4-------4-------2-------2-------4-------4-------|-5-------5-------4-------4-------2-------2-------4-------4-------|
B|-----------------------------------------------------------------|-----------------------------------------------------------------|
G|-----4-------4-------4-------4-------4-------4-------4-------4---|-----4-------4-------4-------4-------4-------4-------4-------4---|
D|-----------------------------------------------------------------|-----------------------------------------------------------------|
A|-----------------------------------------------------------------|-----------------------------------------------------------------|
E|-----------------------------------------------------------------|-----------------------------------------------------------------|

E|-5-------5-------4-------4-------2-------2-------4-------4-------|-5-------5-------4-------4-------2-------2-------4-------4-------|
B|-----------------------------------------------------------------|-----------------------------------------------------------------|
G|-----4-------4-------4-------4-------4-------4-------4-------4---|-----4-------4-------4-------4-------4-------4-------4-------9---|
D|-----------------------------------------------------------------|-----------------------------------------------------------------|
A|-----------------------------------------------------------------|-----------------------------------------------------------------|
E|-----------------------------------------------------------------|-----------------------------------------------------------------|

E|-7-------7-------7-------7-------10------10------9-------9-------|-7-------7-------7-------7-------10------10------9-------9-------|
B|-----------------------------------------------------------------|-----------------------------------------------------------------|
G|-----9-------9-------9-------9-------9-------9-------9-------9---|-----9-------9-------9-------9-------9-------9-------9-------4---|
D|-----------------------------------------------------------------|-----------------------------------------------------------------|
A|-----------------------------------------------------------------|-----------------------------------------------------------------|
E|-----------------------------------------------------------------|-----------------------------------------------------------------|

E|-5-------5-------4-------4-------2-------2-------4-------4-------|-5-------5-------4-------4-------2-------2-------4---------------|
B|-----------------------------------------------------------------|-----------------------------------------------------------------|
G|-----4-------4-------4-------4-------4-------4-------4-------4---|-----4-------4-------4-------4-------4-------4-------4---11--11--|
D|-----------------------------------------------------------------|-----------------------------------------------------------------|
A|-----------------------------------------------------------------|-----------------------------------------------------------------|
E|-----------------------------------------------------------------|-----------------------------------------------------------------|

E|-9-------9-------11------11------12------12------11------11------|-7-------7-------7-------7-------10------10------9-------9-------|
B|-----------------------------------------------------------------|-----------------------------------------------------------------|
G|-----11------11------11------11------11------11------11------9---|-----9-------9-------9-------9-------9-------9-------9-------4---|
D|-----------------------------------------------------------------|-----------------------------------------------------------------|
A|-----------------------------------------------------------------|-----------------------------------------------------------------|
E|-----------------------------------------------------------------|-----------------------------------------------------------------|

E|-5-------5-------4-------4-------2-------2-------4-------4-------|-5-------5-------4-------4-------2-------2-------4-------4-------|
B|-----------------------------------------------------------------|-----------------------------------------------------------------|
G|-----4-------4-------4-------4-------4-------4-------4-------4---|-----4-------4-------4-------4-------4-------4-------4-------4---|
D|-----------------------------------------------------------------|-----------------------------------------------------------------|
A|-----------------------------------------------------------------|-----------------------------------------------------------------|
E|-----------------------------------------------------------------|-----------------------------------------------------------------|

E|-5-------5-------4-------4-------2-------2-------4-------4-------|-5-------5-------4-------4-------2-------2-------4-------4-------|
B|-----------------------------------------------------------------|-----------------------------------------------------------------|
G|-----4-------4-------4-------4-------4-------4-------4-------4---|-----4-------4-------4-------4-------4-------4-------4-------4---|
D|-----------------------------------------------------------------|-----------------------------------------------------------------|
A|-----------------------------------------------------------------|-----------------------------------------------------------------|
E|-----------------------------------------------------------------|-----------------------------------------------------------------|

E|-5-------5-------4-------4-------2-------2-------4-------4-------|-5-------5-------4-------4-------2-------2-------4-------4-------|
B|-----------------------------------------------------------------|-----------------------------------------------------------------|
G|-----4-------4-------4-------4-------4-------4-------4-------4---|-----4-------4-------4-------4-------4-------4-------4-------9---|
D|-----------------------------------------------------------------|-----------------------------------------------------------------|
A|-----------------------------------------------------------------|-----------------------------------------------------------------|
E|-----------------------------------------------------------------|-----------------------------------------------------------------|

E|-7-------7-------7-------7-------10------10------9-------9-------|-7-------7-------7-------7-------10------10------9-------9-------|
B|-----------------------------------------------------------------|-----------------------------------------------------------------|
G|-----9-------9-------9-------9-------9-------9-------9-------9---|-----9-------9-------9-------9-------9-------9-------9-------4---|
D|-----------------------------------------------------------------|-----------------------------------------------------------------|
A|-----------------------------------------------------------------|-----------------------------------------------------------------|
E|-----------------------------------------------------------------|-----------------------------------------------------------------|

E|-5-------5-------4-------4-------2-------2-------4-------4-------|-5-------5-------4-------4-------2-------2-------4---------------|
B|-----------------------------------------------------------------|-----------------------------------------------------------------|
G|-----4-------4-------4-------4-------4-------4-------4-------4---|-----4-------4-------4-------4-------4-------4-------4---11--11--|
D|-----------------------------------------------------------------|-----------------------------------------------------------------|
A|-----------------------------------------------------------------|-----------------------------------------------------------------|
E|-----------------------------------------------------------------|-----------------------------------------------------------------|

E|-9-------9-------11------11------12------12------11------11------|-7-------7-------7-------7-------10------10------9-------9-------|
B|-----------------------------------------------------------------|-----------------------------------------------------------------|
G|-----11------11------11------11------11------11------11------9---|-----9-------9-------9-------9-------9-------9-------9-------4---|
D|-----------------------------------------------------------------|-----------------------------------------------------------------|
A|-----------------------------------------------------------------|-----------------------------------------------------------------|
E|-----------------------------------------------------------------|-----------------------------------------------------------------|

E|-5-------5-------4-------4-------2-------2-------4-------4-------|-5-------5-------4-------4-------2-------2-------4-------4-------|
B|-----------------------------------------------------------------|-----------------------------------------------------------------|
G|-----4-------4-------4-------4-------4-------4-------4-------4---|-----4-------4-------4-------4-------4-------4-------4-------4---|
D|-----------------------------------------------------------------|-----------------------------------------------------------------|
A|-----------------------------------------------------------------|-----------------------------------------------------------------|
E|-----------------------------------------------------------------|-----------------------------------------------------------------|

E|-5-------5-------4-------4-------2-------2-------4-------4-------|-5-------5-------4-------4-------2-------2-------4-------4-------|
B|-----------------------------------------------------------------|-----------------------------------------------------------------|
G|-----4-------4-------4-------4-------4-------4-------4-------4---|-----4-------4-------4-------4-------4-------4-------4-------4---|
D|-----------------------------------------------------------------|-----------------------------------------------------------------|
A|-----------------------------------------------------------------|-----------------------------------------------------------------|
E|-----------------------------------------------------------------|-----------------------------------------------------------------|

E|-5-------5-------4-------4-------2-------2-------4-------4-------|-5-------5-------4-------4-------2-------2-------4-------4-------|
B|-----------------------------------------------------------------|-----------------------------------------------------------------|
G|-----4-------4-------4-------4-------4-------4-------4-------4---|-----4-------4-------4-------4-------4-------4-------4-------9---|
D|-----------------------------------------------------------------|-----------------------------------------------------------------|
A|-----------------------------------------------------------------|-----------------------------------------------------------------|
E|-----------------------------------------------------------------|-----------------------------------------------------------------|

E|-7-------7-------7-------7-------10------10------9-------9-------|-7-------7-------7-------7-------10------10------9-------9-------|
B|-----------------------------------------------------------------|-----------------------------------------------------------------|
G|-----9-------9-------9-------9-------9-------9-------9-------9---|-----9-------9-------9-------9-------9-------9-------9-------4---|
D|-----------------------------------------------------------------|-----------------------------------------------------------------|
A|-----------------------------------------------------------------|-----------------------------------------------------------------|
E|-----------------------------------------------------------------|-----------------------------------------------------------------|

E|-5-------5-------4-------4-------2-------2-------4-------4-------|-5-------5-------4-------4-------2-------2-------4---------------|
B|-----------------------------------------------------------------|-----------------------------------------------------------------|
G|-----4-------4-------4-------4-------4-------4-------4-------4---|-----4-------4-------4-------4-------4-------4-------4---11--11--|
D|-----------------------------------------------------------------|-----------------------------------------------------------------|
A|-----------------------------------------------------------------|-----------------------------------------------------------------|
E|-----------------------------------------------------------------|-----------------------------------------------------------------|

E|-9-------9-------11------11------12------12------11------11------|-7-------7-------7-------7-------10------10------9-------9-------|
B|-----------------------------------------------------------------|-----------------------------------------------------------------|
G|-----11------11------11------11------11------11------11------9---|-----9-------9-------9-------9-------9-------9-------9-------4---|
D|-----------------------------------------------------------------|-----------------------------------------------------------------|
A|-----------------------------------------------------------------|-----------------------------------------------------------------|
E|-----------------------------------------------------------------|-----------------------------------------------------------------|

E|-5-------5-------4-------4-------2-------2-------4-------4-------|-5-------5-------4-------4-------2-------2-------4-------4-------|
B|-----------------------------------------------------------------|-----------------------------------------------------------------|
G|-----4-------4-------4-------4-------4-------4-------4-------4---|-----4-------4-------4-------4-------4-------4-------4-------4---|
D|-----------------------------------------------------------------|-----------------------------------------------------------------|
A|-----------------------------------------------------------------|-----------------------------------------------------------------|
E|-----------------------------------------------------------------|-----------------------------------------------------------------|

E|-5-------5-------4-------4-------2-------2-------4-------4-------|-5-------5-------4-------4-------2-------2-------4-------4-------|
B|-----------------------------------------------------------------|-----------------------------------------------------------------|
G|-----4-------4-------4-------4-------4-------4-------4-------4---|-----4-------4-------4-------4-------4-------4-------4-------4---|
D|-----------------------------------------------------------------|-----------------------------------------------------------------|
A|-----------------------------------------------------------------|-----------------------------------------------------------------|
E|-----------------------------------------------------------------|-----------------------------------------------------------------|

E|-5-------5-------4-------4-------2-------2-------4-------4-------|-5-------5-------4-------4-------2-------2-------4-------4-------|
B|-----------------------------------------------------------------|-----------------------------------------------------------------|
G|-----4-------4-------4-------4-------4-------4-------4-------4---|-----4-------4-------4-------4-------4-------4-------4-------9---|
D|-----------------------------------------------------------------|-----------------------------------------------------------------|
A|-----------------------------------------------------------------|-----------------------------------------------------------------|
E|-----------------------------------------------------------------|-----------------------------------------------------------------|

E|-7-------7-------7-------7-------10------10------9-------9-------|-7-------7-------7-------7-------10------10------9-------9-------|
B|-----------------------------------------------------------------|-----------------------------------------------------------------|
G|-----9-------9-------9-------9-------9-------9-------9-------9---|-----9-------9-------9-------9-------9-------9-------9-------4---|
D|-----------------------------------------------------------------|-----------------------------------------------------------------|
A|-----------------------------------------------------------------|-----------------------------------------------------------------|
E|-----------------------------------------------------------------|-----------------------------------------------------------------|

E|-5-------5-------4-------4-------2-------2-------4-------4-------|-5-------5-------4-------4-------2-------2-------4---------------|
B|-----------------------------------------------------------------|-----------------------------------------------------------------|
G|-----4-------4-------4-------4-------4-------4-------4-------4---|-----4-------4-------4-------4-------4-------4-------4---11--11--|
D|-----------------------------------------------------------------|-----------------------------------------------------------------|
A|-----------------------------------------------------------------|-----------------------------------------------------------------|
E|-----------------------------------------------------------------|-----------------------------------------------------------------|

E|-9-------9-------11------11------12------12------11------11------|-------------------------------------|
B|-----------------------------------------------------------------|----------------------9----9----9----|
G|-----11------11------11------11------11------11------11------9---|-9----%----%-----%----9----9----9----|
D|-----------------------------------------------------------------|-9----%----%-----%----9----9----9----|
A|-----------------------------------------------------------------|-7--------------------7----7----7----|
E|-----------------------------------------------------------------|-------------------------------------|

E|---------|-------------------------|----------------------------|--------------------|
B|---------|-------------------------|----------------------------|--------------------|
G|-%-------|-------------------------|------%---------------------|-------%-----%------|
D|-%-------|-------------------------|------%----8----7----7------|-7-----%-----%------|
A|---------|-------6-----7-----8-----|-9---------7----6----6------|-6------------------|
E|---------|-7-----7-----7-----7-----|-7---------8----7----7------|-7------------------|

E|---------|
B|---------|
G|-%-------|
D|-%-------|
A|---------|
E|---------|
ACDC - Can 't Stand Still (3)
ACDC - Can_'t Stand Still (3).gp3