ACDC - Can 't Stand Still (Solo)

AC-DC



Title: Can't Stand Hill (solo)
Album: Stiff Upper Lip
Artist: AC/DC
Author: Angus & Malcom Young

Track 1: Piste 1
E|-------10----7-----------|-------------------7----7---------------|-7-------------------7--------------------10---|
B|-------9-----7-----------|------7----7---9--------7-----7---------|-7---------7---------7----6---6---6---9--------|
G|-%-----------------%-----|-%----7----7-----------------------%----|------%---------%------------------------------|
D|-%-----------------%-----|-%---------------------------------%----|------%---------%------------------------------|
A|-------------------------|----------------------------------------|-----------------------------------------------|
E|-------------------------|----------------------------------------|-----------------------------------------------|

E|-7-------------------------------|---------------------------7----9----|------7----10----10---10---10---10--9---|
B|-7-----7----7-----7--------------|-------------------------------------|-----------9-----9----9----9------------|
G|-------7----7----------7----8----|-------8----9----8-------------------|-%--------------------------------------|
D|---------------------------------|-9--------------------9--------------|-%--------------------------------------|
A|---------------------------------|-------------------------------------|----------------------------------------|
E|---------------------------------|-------------------------------------|----------------------------------------|

E|-7----9----7---------------------------------|------------------------------------|
B|---------------------------------------------|------------------------------10----|
G|---------------7--------------5--6--7--7-----|------------------------------------|
D|-------------------9----9--------------------|---------6----9----9----9-----------|
A|---------------------------------------------|------------------------------------|
E|---------------------------------------------|-7----X-----------------------------|

E|-----------------------------------------------|-----------------------7----7----|
B|-10---------10---10---7------------------------|---------------------------------|
G|-------11------------------7----8--------------|---------------------------------|
D|-------------------------------------9---------|-------7----7-----X--------------|
A|------------------------------------------9----|-9-------------------------------|
E|-----------------------------------------------|---------------------------------|

E|-7----------7----7-----X----10---|-10----10----10----10----|-16--14-------16----14-------14----------------|
B|-------9--------------------9----|-9-----------------------|---------15-------------15---------15----15----|
G|---------------------------------|-------------------------|-----------------%-----------------------------|
D|---------------------------------|-------------------------|-----------------%-----------------------------|
A|---------------------------------|-------------------------|-----------------------------------------------|
E|---------------------------------|-------------------------|-----------------------------------------------|

E|-----------------------------|---------|-----------7----7----7-----X---------|---------------7---7----7-----------|
B|-15----12---12----X----------|---------|-----------7----7----7-----X---------|------------------------------------|
G|-----------------------%-----|-%-------|-%----8-------------------------%----|-%----8----8------------------%-----|
D|-----------------------%-----|-%-------|-%------------------------------%----|-%----9----9------------------%-----|
A|-----------------------------|---------|-------------------------------------|------------------------------------|
E|-----------------------------|---------|-------------------------------------|------------------------------------|

E|------10---10--------------------|-----------10--------------------|------14---14--10--11---------------|
B|------12---12---9----12----------|------12--------9----12----------|------15---15-----------12----------|
G|-%-------------------13----%-----|-%-------------------------%-----|-%----------------------11----%-----|
D|-%-------------------------%-----|-%-------------------------%-----|-%----------------------------%-----|
A|---------------------------------|---------------------------------|------------------------------------|
E|---------------------------------|---------------------------------|------------------------------------|

E|------14---14-------------------------------|------------------------|------7----7----7--------------------|
B|------15---15---14--15--12------------------|------------------------|------7----7----7----7---------------|
G|-%--------------------------11----11---X----|-%----9----9------%-----|-%-------------------7---------------|
D|-%------------------------------------------|-%----------------%-----|-%-----------------------9-----9-----|
A|--------------------------------------------|------------------------|-------------------------------------|
E|--------------------------------------------|------------------------|-------------------------------------|

E|-----------10--------10--------------|-----------10--------------------|-----------------------7----|
B|------12---9---------9---------------|------12---9----12---12----------|-------------7----9----7----|
G|-%----11--------%---------%----%-----|-%----11--------11---11----%-----|-%------%----7----9---------|
D|-%--------------%---------%----%-----|-%-------------------------%-----|-%------%-------------------|
A|-------------------------------------|---------------------------------|----------------------------|
E|-------------------------------------|---------------------------------|----------------------------|

E|-10-------------------7----7----7----|--------------10----|-10--------10---10--------10-------------|
B|-9--------------------7----7----7----|--------------9-----|-9----12---9----9----12---9----12--------|
G|------%----%-----%-------------------|-%------%-----------|------11-------------11--------11---11---|
D|------%----%-----%-------------------|-%------%-----------|------------------------------------9----|
A|-------------------------------------|--------------------|-----------------------------------------|
E|-------------------------------------|--------------------|-----------------------------------------|

E|-------------------------------|---------|-7------------------|
B|-------------------9----9------|-9-------|-7------------------|
G|-10----10--10--10--------------|---------|-------%-----%------|
D|-------------------------------|---------|-------%-----%------|
A|-------------------------------|---------|--------------------|
E|-------------------------------|---------|--------------------|
ACDC - Can 't Stand Still (Solo)
ACDC - Can_'t Stand Still (Solo).gp3