ACDC - Classic Riffs

AC-DC



Title: Classic AC/DC Riffs
Album: 
Artist: AC/DC
Author: 

Track 1: Track 1
E|-----------------------------|-------------------------------------|-----------------------------|
B|-----------------------------|-------------------------------------|-----------------------------|
G|-------%-----%----0-----2----|-2-----%---------2---------%---------|-------%-----%----0-----2----|
D|-2-----%-----%----0-----2----|-2-----%---------2---------%----2----|-2-----%-----%----0-----2----|
A|-2----------------------0----|-0---------------0--------------2----|-2----------------------0----|
E|-0----------------3----------|------------3---------3---------0----|-0----------------3----------|

E|---------|-------------------|-----------------------------------------|-----------------------------------------|
B|---------|-------------------|-----------------------------------------|-----------------------------------------|
G|-%-------|-%-------%----0----|-0-----------------------------2----0----|-0-----------------------------2----0----|
D|-%-------|-%-------%----0----|-0-----------------------------2----0----|-0-----------------------------2----0----|
A|---------|-------------------|-------------------------------0---------|-------------------------------0---------|
E|---------|--------------3----|-3----0----0----0----0----0---------3----|-3----0----0----0----0----0---------3----|

E|---------------------------------|-----------------------------------------|---------|
B|---------------------------------|-----------------------------------------|---------|
G|-0----------2----2----------0----|-0-----------------------------2----0----|-%-------|
D|-0----------2----2----------0----|-0-----------------------------2----0----|-%-------|
A|------------0----0---------------|-------------------------------0---------|---------|
E|-3----0---------------0-----3----|-3----0----0----0----0----0---------3----|---------|

E|---------------------------------|-----------------------------------------|-------------------------------------|
B|---------------------------------|-----------------------------------------|-------------------------------------|
G|-%-----%----2----2----2-----2----|-2---------------------------------------|----------------2----2----2-----2----|
D|-%-----%----2----2----2-----2----|-2-------------------2----4--------------|-5--------------2----2----2-----2----|
A|------------0----0----0-----0----|-0----0----3----4--------------3----0----|------3----0----0----0----0-----0----|
E|---------------------------------|-----------------------------------------|-------------------------------------|

E|---------|----------------------------|--------------------|----------------------------|
B|---------|----------------------------|--------------------|----------------------------|
G|-%-------|-%--------------------------|--------------------|----------------------------|
D|-%-------|-%------0--------------0----|-0----2------2------|-2------0--------------0----|
A|---------|-------------0---------0----|-0----2------2------|-2-----------0---------0----|
E|---------|------------------0---------|--------------------|------------------0---------|

E|---------|-----------------------------------------|-----------------------------------------|
B|---------|------5---------3----3--------------1----|-1--------------3----3-------------------|
G|-%-------|--------------------------2--------------|------0-------------------2--------------|
D|-%-------|-----------------------------------------|-----------------------------------------|
A|---------|-0---------0-------------------0---------|-----------0-------------------0----0----|
E|---------|-----------------------------------------|-----------------------------------------|

E|-----------------------------------------|-----------------------------------------|
B|------5---------3----3--------------1----|-1--------------3----3-------------------|
G|--------------------------2--------------|------0-------------------0----0---------|
D|-----------------------------------------|-----------------------------------------|
A|-0---------0-------------------0---------|-----------0--------------3----2----0----|
E|-----------------------------------------|-----------------------------------------|

E|---------|----------------2---2---2----------------------|---------------------3---0-----------------------|
B|---------|----------------3---3---3--------------2---2---|-2---------------------------3-------------------|
G|-%-------|------%----%----2---2---2----%----%----2---2---|-2----%----%-----%---------------0---------------|
D|-%-------|-2----%----%----0---0---0----%----%----2---2---|-2----%----%-----%-------------------2---2---0---|
A|---------|-2-------------------------------------0---0---|-0-----------------------------------------------|
E|---------|-0---------------------------------------------|-------------------------------------------------|

E|----------------2---2---2----------------------|--------------------------------------------------------|
B|----------------3---3---3--------------2---2---|-2------------------------------------------------------|
G|------%----%----2---2---2----%----%----2---2---|-2----%------------%-----------%-----------%------------|
D|-2----%----%----0---0---0----%----%----2---2---|-2----%------------%-----------%-----------%------------|
A|-2-------------------------------------0---0---|-0---------2-----------2-----------2-----------2--------|
E|-0---------------------------------------------|---------------4-----------5-----------6-----------7----|

E|---------|-----------------------------|---------------------------------|-----------------------------|
B|---------|------------------------1----|-1----1----------1----------3----|-3---------------------------|
G|-%-------|-0-----%-----%-----%----0----|-0----0----0-----0-----0----2----|-2-----%-----%-----%----0----|
D|-%-------|-0-----%-----%-----%---------|-----------0-----------0----0----|-0-----%-----%-----%----0----|
A|---------|------------------------3----|-3----3----------3---------------|-----------------------------|
E|---------|-3---------------------------|-----------3-----------3---------|------------------------3----|

E|-----------------------------|---------|-------------------|-----------------------------|
B|-----------3-----------3-----|---------|-------------------|-----------------------------|
G|-0----0----2-----0-----2-----|-%-------|---------%----0----|-0-----------------%----2----|
D|-0----0----0-----0-----0-----|-%-------|-2-------%----0----|-0----2------2-----%----2----|
A|-----------------------------|---------|-2-----------------|------2------2----------0----|
E|-3----3----------3-----------|---------|-0------------3----|-3----0------0---------------|

E|-----------------------------|--------------------|---------|----------------------------|
B|------------------------3----|-3------------------|---------|-------------2----2----2----|
G|-2-----------------%----2----|-2------------------|-%-------|-%------%----2----2----2----|
D|-2----2------2-----%----0----|-0----2------2------|-%-------|-%------%----2----2----2----|
A|-0----2------2---------------|------2------2------|---------|-------------0----0----0----|
E|------0------0---------------|------0------0------|---------|----------------------------|

E|-------------2----2---------|-------------2----2---------|------2----2--------------2--------------|
B|-------------3----3----3----|-------------3----3----3----|------3----3----3---------3---------2----|
G|-%------%----2----2----0----|-%------%----2----2----0----|-%----2----2----0----%----2----%----2----|
D|-%------%--------------0----|-%------%--------------0----|-%--------------0----%---------%----2----|
A|----------------------------|----------------------------|------------------------------------0----|
E|-------------2----2----3----|-------------2----2----3----|------2----2----3---------2--------------|

E|---------------------------------|
B|-2----------------2----2----2----|
G|-2-----%-----%----2----2----2----|
D|-2-----%-----%----2----2----2----|
A|-0----------------0----0----0----|
E|---------------------------------|
ACDC - Classic Riffs
ACDC - Classic Riffs.gp4