ACDC - Girls got rhythm

AC-DC



Title: Girls got rhythm
Album: Highway to hell
Artist: AC/DC
Author: AC/DC

Track 1: Guitar
E|-------------------------------------|-------------------------------------|-------------------------------------|
B|-------------------------------------|-------------------------------------|-------------------------------------|
G|-7----%----%----5----5-----%---------|------2----2---------5-----2----%----|-7----%----%----5----5-----%---------|
D|-7----%----%----5----5-----%----2----|-4-------------------5-----2----%----|-7----%----%----5----5-----%----2----|
A|-5--------------3----3---------------|----------------0----3-----0---------|-5--------------3----3---------------|
E|-------------------------------------|-------------------------------------|-------------------------------------|

E|-------------------------------------|---------------------------------|-------------------------------------|
B|-------------------------------------|---------------------------------|-------------------------------------|
G|------2----2---------5-----2---------|-7-----7----5----5-----5---------|------2----2---------5-----2---------|
D|-4-------------------5-----2---------|-7-----7----5----5-----5----2----|-4-------------------5-----2---------|
A|----------------0----3-----0----0----|-5-----5----3----3-----3---------|----------------0----3-----0----0----|
E|-------------------------------------|---------------------------------|-------------------------------------|

E|---------------------------------|-------------------------------------|-------------------------------------|
B|---------------------------------|-------------------------------------|-------------------------------------|
G|-7-----7----5----5-----5---------|------2----2---------2----%----%-----|-7----%----%----5----5-----%---------|
D|-7-----7----5----5-----5----2----|-4--------------4----2----%----%-----|-7----%----%----5----5-----%----2----|
A|-5-----5----3----3-----3---------|---------------------0---------------|-5--------------3----3---------------|
E|---------------------------------|-------------------------------------|-------------------------------------|

E|-------------------------------------|-------------------------------------|---------------------------------|
B|-------------------------------------|-------------------------------------|---------------------------------|
G|------2----2---------5-----2---------|-7----7----7----7----7-----%---------|------2----2---------5-----------|
D|-4-------------------5-----2---------|-7----7----7----7----7-----%----2----|-4--------------4----5-----7-----|
A|----------------0----3-----0----0----|-5----5----5----5----5---------------|---------------------------------|
E|-------------------------------------|-------------------------------------|---------------------------------|

E|-----------------------------------------|-----------------------------------------|
B|-----------------------------------------|-----------------------------------------|
G|-4----4----4----4----4----4----4---------|-----------------------------------------|
D|-4----4----4----4----4----4----4----2----|-2----2----2---------2----2--------------|
A|-2----2----2----2----2----2----2----2----|-2----2----2---------2----2--------------|
E|------------------------------------0----|-0----0----0----0----0----0----0----0----|

E|---------------------------------|-------------------------------------|--------------------|
B|---------------------------------|-------------------------------------|--------------------|
G|-7-----7----5----5-----5---------|------2----2---------5-----2---------|-%------%-----7-----|
D|-7-----7----5----5-----5----2----|-4-------------------5-----2---------|-%------%-----------|
A|-5-----5----3----3-----3---------|----------------0----3-----0----0----|--------------------|
E|---------------------------------|-------------------------------------|--------------------|

E|------5----5---------5----5--------------|--------------------|------5----5---------5-----------|
B|------5----5---------5----5--------------|--------------------|------5----5---------5-----------|
G|-7--------------7--------------7----5----|-%------%-----7-----|-7--------------7----------%-----|
D|-----------------------------------------|-%------%-----------|---------------------------%-----|
A|-----------------------------------------|--------------------|---------------------------------|
E|-----------------------------------------|--------------------|---------------------------------|

E|-------------------------------------|-------------------------------------|-------------------------------------|
B|-------------------------------------|-------------------------------------|-------------------------------------|
G|-7----%----%----5----5-----%---------|------2----2---------5-----2---------|-7----7----7----7----7-----%---------|
D|-7----%----%----5----5-----%----2----|-4-------------------5-----2---------|-7----7----7----7----7-----%----2----|
A|-5--------------3----3---------------|----------------0----3-----0----0----|-5----5----5----5----5---------------|
E|-------------------------------------|-------------------------------------|-------------------------------------|

E|---------------------------------|-----------------------------------------|-----------------------------------------|
B|---------------------------------|-----------------------------------------|-----------------------------------------|
G|------2----2---------5-----------|-4----4----4----4----4----4----4---------|-----------------------------------------|
D|-4--------------4----5-----7-----|-4----4----4----4----4----4----4----2----|-2----2----2---------2----2--------------|
A|---------------------------------|-2----2----2----2----2----2----2----2----|-2----2----2---------2----2--------------|
E|---------------------------------|------------------------------------0----|-0----0----0----0----0----0----0----0----|

E|---------------------------------|-------------------------------------|-------5----5----5-----5---------|
B|---------------------------------|-------------------------------------|-7-----5----5----5-----5---------|
G|-7-----7----5----5-----5---------|------2----2---------5-----2---------|----------------------------7----|
D|-7-----7----5----5-----5----2----|-4-------------------5-----2---------|---------------------------------|
A|-5-----5----3----3-----3---------|----------------0----3-----0----0----|---------------------------------|
E|---------------------------------|-------------------------------------|---------------------------------|

E|------5----5---------5----5--------------|-------5----5----5---------------|-------------------------------------|
B|------5----5---------5----5--------------|-7-----5----5----5----7----7-----|-------------------------------------|
G|-7--------------7--------------7----5----|---------------------------------|-5---------------5---------%----7----|
D|-----------------------------------------|---------------------------------|-------7----7---------7----%---------|
A|-----------------------------------------|---------------------------------|-------------------------------------|
E|-----------------------------------------|---------------------------------|-------------------------------------|

E|------5----5---------5-----------|-----------------------------------------|-----------------------------------------|
B|------5----5---------5-----------|---------------------5----7----7----5----|------7----5---------7----5---------7----|
G|-7--------------7----------7-----|-5----5---------7----5----7----7----5----|-7----7----5----7----7----5----7----7----|
D|---------------------------------|-----------7-----------------------------|-7--------------7--------------7---------|
A|---------------------------------|-----------------------------------------|-----------------------------------------|
E|---------------------------------|-----------------------------------------|-----------------------------------------|

E|-----------------------------------------|------17---17--------17---17---17---17---|
B|-5---------7----5----5----7--------------|------17---17--------17---17---17---17---|
G|-5----7----7----5----5----7----%----16---|-16-------------16-----------------------|
D|------7------------------------%---------|-----------------------------------------|
A|-----------------------------------------|-----------------------------------------|
E|-----------------------------------------|-----------------------------------------|

E|---------------------------------|-------17---17---------17---17---|---------------------------------|
B|-17----17------------------------|-------17---17---------17---17---|---------------------------------|
G|-16----16--------------14---16---|-16--------------16--------------|-14---14---14--------14----%-----|
D|-------------16---16-------------|---------------------------------|----------------16---------%-----|
A|---------------------------------|---------------------------------|---------------------------------|
E|---------------------------------|---------------------------------|---------------------------------|

E|---------------|------17--------17--------17--------17---|------17--------17--------17--------17---|
B|---------------|------17--------17--------17--------17---|------17--------17--------17--------17---|
G|-19-----19-----|-19--------19--------19--------19--------|-19--------19--------19--------19--------|
D|---------------|-----------------------------------------|-----------------------------------------|
A|---------------|-----------------------------------------|-----------------------------------------|
E|---------------|-----------------------------------------|-----------------------------------------|

E|-20----20----20----20----|-------------------------------------|---------------------------------|
B|-20----20----20----20----|-------------------------------------|---------------------------------|
G|-19----19----19----19----|-7----7----7----7----7-----%---------|------2----2---------5-----------|
D|-------------------------|-7----7----7----7----7-----%----2----|-4--------------4----5-----7-----|
A|-------------------------|-5----5----5----5----5---------------|---------------------------------|
E|-------------------------|-------------------------------------|---------------------------------|

E|-----------------------------------------|-----------------------------------------|
B|-----------------------------------------|-----------------------------------------|
G|-4----4----4----4----4----4----4---------|-----------------------------------------|
D|-4----4----4----4----4----4----4----2----|-2----2----2---------2----2--------------|
A|-2----2----2----2----2----2----2----2----|-2----2----2---------2----2--------------|
E|------------------------------------0----|-0----0----0----0----0----0----0----0----|

E|---------------------------------|-------------------------------------|---------------------------------|
B|---------------------------------|-------------------------------------|---------------------------------|
G|-7-----7----5----5-----5---------|------2----2---------5-----2---------|-7-----7----5----5-----5---------|
D|-7-----7----5----5-----5----2----|-4-------------------5-----2---------|-7-----7----5----5-----5----2----|
A|-5-----5----3----3-----3---------|----------------0----3-----0----0----|-5-----5----3----3-----3---------|
E|---------------------------------|-------------------------------------|---------------------------------|

E|-------------------------------------|
B|-------------------------------------|
G|------2----2---------2----%----%-----|
D|-4--------------4----2----%----%-----|
A|---------------------0---------------|
E|-------------------------------------|
ACDC - Girls got rhythm
ACDC - Girls got rhythm.gp3