ACDC - Hail Caesar

AC-DC



Title: Hail Caesar
Album: Ballbreaker
Artist: AD/DC
Author: Malcom Young / Angus Young

Track 1: Guitare 1
D#|-------------------------|-----------------------------|-------------------------|
A#|-------------------------|-----------------------------|-------------------------|
F#|-------------------------|----------------------2------|-------------------------|
C#|-2----2------2----2------|-2----2-----2----2----2------|-2----2------2----2------|
G#|-2----2------2----2------|-2----2-----2----2----0------|-2----2------2----2------|
D#|-3----0------3----0------|-3----0-----3----3-----------|-3----0------3----0------|

D#|-----------------------------|-------------------------|-----------------------------|
A#|-----------------------------|-------------------------|-----------------------------|
F#|----------------------2------|-------------------------|----------------------2------|
C#|-2----2-----2----2----2------|-2----2------2----2------|-2----2-----2----2----2------|
G#|-2----2-----2----2----0------|-2----2------2----2------|-2----2-----2----2----0------|
D#|-3----0-----3----3-----------|-3----0------3----0------|-3----0-----3----3-----------|

D#|-------------------------|-----------------------------|-------------------------|
A#|-------------------------|-----------------------------|-------------------------|
F#|-------------------------|----------------------2------|-------------------------|
C#|-2----2------2----2------|-2----2-----2----2----2------|-2----2------2----2------|
G#|-2----2------2----2------|-2----2-----2----2----0------|-2----2------2----2------|
D#|-3----0------3----0------|-3----0-----3----3-----------|-3----0------3----0------|

D#|-----------------------------|-------------------------|---------------------------------|
A#|-----------------------------|-------------------------|---------------------------------|
F#|----------------------2------|-------------------------|----------------------2----------|
C#|-2----2-----2----2----2------|-2----2------2----2------|-2----2-----2----2----2-----2----|
G#|-2----2-----2----2----0------|-2----2------2----2------|-2----2-----2----2----0-----2----|
D#|-3----0-----3----3-----------|-3----0------3----0------|-3----0-----3----3----------0----|

D#|---------------------------------|------------------------|---------------------------------|
A#|---------------------------------|------------------------|---------------------------------|
F#|-----------2--------------%------|-%------%-----%---------|-----------2--------------%------|
C#|-2---------2---------2----%------|-%------%-----%----2----|-2---------2---------2----%------|
G#|-2---------0---------2-----------|-------------------2----|-2---------0---------2-----------|
D#|-0----3---------3----0-----------|-------------------0----|-0----3---------3----0-----------|

D#|------------------------|---------------------------------|------------------------|
A#|------------------------|---------------------------------|------------------------|
F#|-%------%-----%---------|-----------2--------------%------|-%------%-----%---------|
C#|-%------%-----%----2----|-2---------2---------2----%------|-%------%-----%----2----|
G#|-------------------2----|-2---------0---------2-----------|-------------------2----|
D#|-------------------0----|-0----3---------3----0-----------|-------------------0----|

D#|---------------------------------|------------------------|-------------------------------------|
A#|---------------------------------|------------------------|-------------------------------------|
F#|-----------2--------------%------|-%------%-----%---------|-----------4--------------%----------|
C#|-2---------2---------2----%------|-%------%-----%----4----|-4----0----4----0----4----%-----4----|
G#|-2---------0---------2-----------|-------------------4----|-4----0----2----0----4----------4----|
D#|-0----3---------3----0-----------|-------------------2----|-2-------------------2----------2----|

D#|-------------------------------------|---------------------------------|---------------------------------|
A#|-------------------------------------|---------------------------------|----------------------3----------|
F#|-----------4--------------%-----2----|-2---------2----2---------2------|------2---------------2----------|
C#|-4----0----4----0----4----%-----2----|-2---------0----2---------2------|------2---------------0-----4----|
G#|-4----0----2----0----4----------0----|-0----3---------0----3----0------|-3----0-----3----3----------4----|
D#|-2-------------------2---------------|---------------------------------|----------------------------2----|

D#|-------------------------------------|-------------------------------------|-----------------------------------------|
A#|-------------------------------------|-------------------------------------|-----------------------------------------|
F#|-----------4--------------%----------|-----------4--------------%----------|-----------------------------------------|
C#|-4----0----4----0----4----%-----4----|-4----0----4----0----4----%-----4----|------4----4----4---------4----4----4----|
G#|-4----0----2----0----4----------4----|-4----0----2----0----4----------2----|-5----2----2----2----5----2----2----2----|
D#|-2-------------------2----------2----|-2-------------------2---------------|-----------------------------------------|

D#|----------------------------|-------------------------|-----------------------------|
A#|----------------3----3------|-------------------------|-----------------------------|
F#|----------------2----2------|-------------------------|----------------------2------|
C#|------4----4----0----0------|-2----2------2----2------|-2----2-----2----2----2------|
G#|-5----2----2----------------|-2----2------2----2------|-2----2-----2----2----0------|
D#|----------------------------|-3----0------3----0------|-3----0-----3----3-----------|

D#|-------------------------|-----------------------------|-------------------------|
A#|-------------------------|-----------------------------|-------------------------|
F#|-------------------------|----------------------2------|-------------------------|
C#|-2----2------2----2------|-2----2-----2----2----2------|-2----2------2----2------|
G#|-2----2------2----2------|-2----2-----2----2----0------|-2----2------2----2------|
D#|-3----0------3----0------|-3----0-----3----3-----------|-3----0------3----0------|

D#|-----------------------------|-------------------------|---------------------------------|
A#|-----------------------------|-------------------------|---------------------------------|
F#|----------------------2------|-------------------------|----------------------2----------|
C#|-2----2-----2----2----2------|-2----2------2----2------|-2----2-----2----2----2-----4----|
G#|-2----2-----2----2----0------|-2----2------2----2------|-2----2-----2----2----0-----4----|
D#|-3----0-----3----3-----------|-3----0------3----0------|-3----0-----3----3----------2----|

D#|---------------------------------|------------------------|---------------------------------|
A#|---------------------------------|------------------------|---------------------------------|
F#|-----------4--------------%------|-%------%-----%---------|-----------4--------------%------|
C#|-4----0----4----0----4----%------|-%------%-----%----4----|-4----0----4----0----4----%------|
G#|-4----0----2----0----4-----------|-------------------4----|-4----0----2----0----4-----------|
D#|-2-------------------2-----------|-------------------2----|-2-------------------2-----------|

D#|------------------------|---------------------------------|------------------------|
A#|------------------------|---------------------------------|------------------------|
F#|-%------%-----%---------|-----------4--------------%------|-%------%-----%---------|
C#|-%------%-----%----4----|-4----0----4----0----4----%------|-%------%-----%----4----|
G#|-------------------4----|-4----0----2----0----4-----------|-------------------4----|
D#|-------------------2----|-2-------------------2-----------|-------------------2----|

D#|---------------------------------|------------------------|-------------------------------------|
A#|---------------------------------|------------------------|-------------------------------------|
F#|-----------4--------------%------|-%------%-----%----2----|-2---------2---------2----%-----2----|
C#|-4----0----4----0----4----%------|-%------%-----%----2----|-2---------0---------2----%-----2----|
G#|-4----0----2----0----4-----------|-------------------0----|-0----3---------3----0----------0----|
D#|-2-------------------2-----------|------------------------|-------------------------------------|

D#|-------------------------------------|---------------------------------|---------------------------------|
A#|-------------------------------------|---------------------------------|----------------------3----------|
F#|-2---------2---------2----%-----2----|-2---------2----2---------2------|------2---------------2-----2----|
C#|-2---------0---------2----%-----2----|-2---------0----2---------2------|------2---------------0-----2----|
G#|-0----3---------3----0----------0----|-0----3---------0----3----0------|-3----0-----3----3----------0----|
D#|-------------------------------------|---------------------------------|---------------------------------|

D#|-------------------------------------|-------------------------------------|-----------------------------------------|
A#|-------------------------------------|-------------------------------------|-----------------------------------------|
F#|-2---------2---------2----%-----2----|-2---------2---------2----%----------|-----------------------------------------|
C#|-2---------0---------2----%-----2----|-2---------0---------2----%-----4----|------4----4----4---------4----4----4----|
G#|-0----3---------3----0----------0----|-0----3---------3----0----------2----|-5----2----2----2----5----2----2----2----|
D#|-------------------------------------|-------------------------------------|-----------------------------------------|

D#|----------------------------|-------------------------|-----------------------------|
A#|----------------3----3------|-------------------------|-----------------------------|
F#|----------------2----2------|-------------------------|----------------------2------|
C#|------4----0----0----0------|-2----2------2----2------|-2----2-----2----2----2------|
G#|-5----2----0----0----0------|-2----2------2----2------|-2----2-----2----2----0------|
D#|----------------------------|-3----0------3----0------|-3----0-----3----3-----------|

D#|-------------------------|-----------------------------|-------------------------|
A#|-------------------------|-----------------------------|-------------------------|
F#|-------------------------|----------------------2------|-------------------------|
C#|-2----2------2----2------|-2----2-----2----2----2------|-2----2------2----2------|
G#|-2----2------2----2------|-2----2-----2----2----0------|-2----2------2----2------|
D#|-3----0------3----0------|-3----0-----3----3-----------|-3----0------3----0------|

D#|-----------------------------|-------------------------|---------------------------------|
A#|-----------------------------|-------------------------|---------------------------------|
F#|----------------------2------|-------------------------|----------------------2-----%----|
C#|-2----2-----2----2----2------|-2----2------2----2------|-2----2-----2----2----2-----%----|
G#|-2----2-----2----2----0------|-2----2------2----2------|-2----2-----2----2----0----------|
D#|-3----0-----3----3-----------|-3----0------3----0------|-3----0-----3----3---------------|

D#|-0-------------------------------|-------------------------------------|-0-----------------------------------|
A#|------3--------------------------|----------------3----3---------------|------3------------------------------|
F#|-----------3----2----0----0------|-2--------------0----0----------%----|-----------3----2----0---------------|
C#|--------------------------2------|-0--------------0----0----2-----%----|--------------------------2-----0----|
G#|---------------------------------|------1----0--------------2----------|-------------------------------------|
D#|---------------------------------|----------------3----3----0----------|-------------------------------------|

D#|------------------------------------|-2-------------------------------|-------------------------------------|
A#|------------------------------------|-3---------------3---------------|-3--------------3----3---------------|
F#|------------------------------------|-2---------------0---------------|-2--------------0----0---------------|
C#|-2---0------------------------------|-0---------------0----2-----2----|-0--------------0----0----2-----2----|
G#|---------1----0---------------------|-------1----0---------2-----2----|------1----0--------------2-----2----|
D#|-------------------3----3----0------|-----------------3----0-----0----|----------------3----3----0-----0----|

D#|-2-------------------------------|-------------------------------------|-2-------------------------------|
A#|-3---------------3---------------|-3--------------3----3---------------|-3---------------3---------------|
F#|-2---------------0---------------|-2--------------0----0---------------|-2---------------0---------------|
C#|-0---------------0----2-----2----|-0--------------0----0----2-----2----|-0---------------0----2-----2----|
G#|-------1----0---------2-----2----|------1----0--------------2-----2----|-------1----0---------2-----2----|
D#|-----------------3----0-----0----|----------------3----3----0-----0----|-----------------3----0-----0----|

D#|-------------------------------------|-2-------------------------------|-------------------------------------|
A#|-3--------------3----3---------------|-3---------------3---------------|-3--------------3----3---------------|
F#|-2--------------0----0---------------|-2---------------0---------------|-2--------------0----0---------------|
C#|-0--------------0----0----2-----2----|-0---------------0----2-----2----|-0--------------0----0----2-----2----|
G#|------1----0--------------2-----2----|-------1----0---------2-----2----|------1----0--------------2-----2----|
D#|----------------3----3----0-----0----|-----------------3----0-----0----|----------------3----3----0-----0----|

D#|-3-------------------------------|---------------------------------|-3-------------------------------|
A#|-3-------------------------------|---------------------------------|-3-------------------------------|
F#|-0---------------2----2-----2----|-2----2----2----2----2------2----|-0--------------------2----------|
C#|-0-----1----0----2----2-----2----|-2----2----2----2----2------2----|-0-----1----0----2----2----------|
G#|-----------------3----0-----0----|-3----0----0----3----0------0----|-----------------3----0-----0----|
D#|-3-------------------------------|---------------------------------|-3-------------------------------|

D#|-----------------------------------------|-3-------------------------------|---------------------------------|
A#|-----------------------------------------|-3-------------------------------|---------------------------------|
F#|------2----2---------2----2---------2----|-0---------------2----2-----2----|-2----2----2----2----2------2----|
C#|------2----2---------2----0---------2----|-0-----1----0----2----2-----2----|-2----2----2----2----2------2----|
G#|-3----0----0----3----0---------3----0----|-----------------3----0-----0----|-3----0----0----3----0------0----|
D#|-----------------------------------------|-3-------------------------------|---------------------------------|

D#|-3-------------------------------|-----------------------------------------|-2-------------------------------|
A#|-3-------------------------------|-----------------------------------------|-3---------------3---------------|
F#|-0--------------------2----------|------2----2---------2----2---------2----|-2---------------0---------------|
C#|-0-----1----0----2----2----------|------2----2---------2----0---------2----|-0---------------0----2-----2----|
G#|-----------------3----0-----0----|-3----0----0----3----0---------3----0----|-------1----0---------2-----2----|
D#|-3-------------------------------|-----------------------------------------|-----------------3----0-----0----|

D#|-------------------------------------|-2-------------------------------|-------------------------------------|
A#|-3--------------3----3---------------|-3---------------3---------------|-3--------------3----3---------------|
F#|-2--------------0----0---------------|-2---------------0---------------|-2--------------0----0---------------|
C#|-0--------------0----0----2-----2----|-0---------------0----2-----2----|-0--------------0----0----2-----2----|
G#|------1----0--------------2-----2----|-------1----0---------2-----2----|------1----0--------------2-----2----|
D#|----------------3----3----0-----0----|-----------------3----0-----0----|----------------3----3----0-----0----|

D#|-------------------------------------|-------------------------------------|---------|
A#|-3--------------3----3---------------|----------------3----3---------------|---------|
F#|-2--------------0----0---------------|-2--------------0----0----------%----|-%-------|
C#|-0--------------0----0----2-----2----|-0--------------0----0----2-----%----|-%-------|
G#|------1----0--------------2-----2----|------1----0--------------2----------|---------|
D#|----------------3----3----0-----0----|----------------3----3----0----------|---------|

D#|-------------------------------------|-0-----------------------------------|-----------------------------|
A#|----------------3----3---------------|------3------------------------------|-----------------3-----------|
F#|-2--------------0----0----------%----|-----------4----2----0----------2----|-2---------------0-----------|
C#|-0--------------0----0----2-----%----|--------------------------2-----0----|-0---------------0----2------|
G#|------1----0--------------2----------|-------------------------------------|-------1----0---------2------|
D#|----------------3----3----0----------|-------------------------------------|-----------------3----0------|

D#|-------------------------|--------------------|---------|---------|---------|---------|
A#|-3-----------3-----------|-3------------------|---------|---------|---------|---------|
F#|-0-----------0-----------|-0------------------|---------|---------|---------|---------|
C#|-0----2------0----2------|-0----2------2------|-2-------|-2-------|-2-------|-2-------|
G#|------2-----------2------|------2------2------|-2-------|-2-------|-2-------|-2-------|
D#|-3----0------3----0------|-3----0------0------|-0-------|-0-------|-0-------|-0-------|

D#|---------|---------|---------|---------|---------|---------|---------|---------|
A#|---------|---------|---------|---------|---------|---------|---------|---------|
F#|-%-------|-%-------|-%-------|-%-------|-%-------|-%-------|-%-------|-%-------|
C#|-%-------|-%-------|-%-------|-%-------|-%-------|-%-------|-%-------|-%-------|
G#|---------|---------|---------|---------|---------|---------|---------|---------|
D#|---------|---------|---------|---------|---------|---------|---------|---------|

D#|---------|---------|-------------------------|---------------------------------|
A#|---------|---------|-------------------------|---------------------------------|
F#|---------|---------|-------------------------|----------------------2----------|
C#|-2-------|-2-------|-2----2------2----2------|-2----2-----2----2----2----2-----|
G#|-2-------|-2-------|-2----2------2----2------|-2----2-----2----2----0----2-----|
D#|-0-------|-0-------|-3----0------3----0------|-3----0-----3----3---------0-----|

D#|---------|---------|-------------------------|---------------------------------|
A#|---------|---------|-------------------------|---------------------------------|
F#|---------|---------|-------------------------|----------------------2----------|
C#|-2-------|-2-------|-2----2------2----2------|-2----2-----2----2----2----2-----|
G#|-2-------|-2-------|-2----2------2----2------|-2----2-----2----2----0----2-----|
D#|-0-------|-0-------|-3----0------3----0------|-3----0-----3----3---------0-----|

D#|-------------------|---------------------------------|-------------------2----|-2-------------------------------|
A#|-------------------|---------------------------------|-------------------3----|-3---------------3---------------|
F#|-------------------|-----------2--------------%------|-%------%-----%----2----|-2---------------0---------%-----|
C#|-2-------2----2----|-2---------2---------2----%------|-%------%-----%----0----|-0---------------0----2----%-----|
G#|-2-------2----2----|-2---------0---------2-----------|------------------------|-------1----0---------2----------|
D#|-0-------0----0----|-0----3---------3----0-----------|------------------------|-----------------3----0----------|

D#|------------------------|---------------------------------|-------------------2----|
A#|------------------------|---------------------------------|-------------------3----|
F#|-%------%-----%---------|-----------2--------------%------|-%------%-----%----2----|
C#|-%------%-----%----2----|-2---------2---------2----%------|-%------%-----%----0----|
G#|-------------------2----|-2---------0---------2-----------|------------------------|
D#|-------------------0----|-0----3---------3----0-----------|------------------------|

D#|-2-----------------------------------|-------------------------------------|-------------------------------------|
A#|-3---------------3-------------------|-------------------------------------|-------------------------------------|
F#|-2---------------0---------%---------|-----------2--------------%----------|-----------2--------------%----------|
C#|-0---------------0----2----%----2----|-2---------2---------2----%-----2----|-2---------2---------2----%-----2----|
G#|-------1----0---------2---------2----|-2---------0---------2----------2----|-2---------0---------2----------2----|
D#|-----------------3----0---------0----|-0----3---------3----0----------0----|-0----3---------3----0----------0----|

D#|-------------------------------------|-------------------------------------|-------------------------------------|
A#|-------------------------------------|-------------------------------------|-------------------------------------|
F#|-----------2--------------%----------|-----------2--------------%----------|-----------2--------------%----------|
C#|-2---------2---------2----%-----2----|-2---------2---------2----%-----2----|-2---------2---------2----%-----2----|
G#|-2---------0---------2----------2----|-2---------0---------2----------2----|-2---------0---------2----------2----|
D#|-0----3---------3----0----------0----|-0----3---------3----0----------0----|-0----3---------3----0----------0----|

D#|-------------------------------------|-----------------------------------------|
A#|-------------------------------------|-----------------------------------------|
F#|-----------2--------------%----------|-----------2-------------------2---------|
C#|-2---------2---------2----%-----2----|-2---------2---------2---------2---------|
G#|-2---------0---------2----------2----|-2---------0---------2---------0---------|
D#|-0----3---------3----0----------0----|-0----3---------3----0----3---------3----|

D#|-----------------------------------------|-2-------------------------------|-------------------------------------|
A#|-----------------------------------------|-3---------------3---------------|-3--------------3----3---------------|
F#|-----------2--------------%--------------|-2---------------0---------------|-2--------------0----0---------------|
C#|-2---------2---------2----%----2----2----|-0---------------0----2-----2----|-0--------------0----0----2-----2----|
G#|-2---------0---------2---------2----2----|-------1----0---------2-----2----|------1----0--------------2-----2----|
D#|-0----3---------3----0---------0----0----|-----------------3----0-----0----|----------------3----3----0-----0----|

D#|-2-------------------------------|-------------------------------------|-2-------------------------------|
A#|-3---------------3---------------|-3--------------3----3---------------|-3---------------3---------------|
F#|-2---------------0---------------|-2--------------0----0---------------|-2---------------0---------------|
C#|-0---------------0----2-----2----|-0--------------0----0----2-----2----|-0---------------0----2-----2----|
G#|-------1----0---------2-----2----|------1----0--------------2-----2----|-------1----0---------2-----2----|
D#|-----------------3----0-----0----|----------------3----3----0-----0----|-----------------3----0-----0----|

D#|-------------------------------------|-2-------------------------------|-------------------------------------|
A#|-3--------------3----3---------------|-3---------------3---------------|-3--------------3----3---------------|
F#|-2--------------0----0---------------|-2---------------0---------------|-2--------------0----0---------------|
C#|-0--------------0----0----2-----2----|-0---------------0----2-----2----|-0--------------0----0----2-----2----|
G#|------1----0--------------2-----2----|-------1----0---------2-----2----|------1----0--------------2-----2----|
D#|----------------3----3----0-----0----|-----------------3----0-----0----|----------------3----3----0-----0----|

D#|-------------------------|-----------------------------|-2-------------------------------|
A#|-------------------------|-----------------------------|-3---------------3---------------|
F#|-------------------------|----------------------2------|-2---------------0---------------|
C#|-2----2------0----2------|-2----2-----2----2----2------|-0---------------0----2-----2----|
G#|-2----2------2----2------|-2----2-----2----2----0------|-------1----0---------2-----2----|
D#|-3----0------3----0------|-3----0-----3----3-----------|-----------------3----0-----0----|

D#|-------------------------------------|-------------------------|-----------------------------|
A#|-3--------------3----3---------------|-------------------------|-----------------------------|
F#|-2--------------0----0---------------|-------------------------|----------------------2------|
C#|-0--------------0----0----2-----2----|-2----2------0----2------|-2----2-----2----2----2------|
G#|------1----0--------------2-----2----|-2----2------2----2------|-2----2-----2----2----0------|
D#|----------------3----3----0-----0----|-3----0------3----0------|-3----0-----3----3-----------|

D#|-2-------------------------------|-------------------------------------|-2-------------------------------|
A#|-3---------------3---------------|-3--------------3----3---------------|-3---------------3---------------|
F#|-2---------------0---------------|-2--------------0----0---------------|-2---------------0---------------|
C#|-0---------------0----2-----2----|-0--------------0----0----2-----2----|-0---------------0----2-----2----|
G#|-------1----0---------2-----2----|------1----0--------------2-----2----|-------1----0---------2-----2----|
D#|-----------------3----0-----0----|----------------3----3----0-----0----|-----------------3----0-----0----|

D#|-------------------------------------|-2-------------------------------|-------------------------------------|
A#|-3--------------3----3---------------|-3---------------3---------------|-3--------------3----3---------------|
F#|-2--------------0----0---------------|-2---------------0---------------|-2--------------0----0---------------|
C#|-0--------------0----0----2-----2----|-0---------------0----2-----2----|-0--------------0----0----2-----2----|
G#|------1----0--------------2-----2----|-------1----0---------2-----2----|------1----0--------------2-----2----|
D#|----------------3----3----0-----0----|-----------------3----0-----0----|----------------3----3----0-----0----|

D#|-2-------------------------------|-------------------------------------|-2-------------------------------|
A#|-3---------------3---------------|-3--------------3----3---------------|-3---------------3---------------|
F#|-2---------------0---------------|-2--------------0----0---------------|-2---------------0---------------|
C#|-0---------------0----2-----2----|-0--------------0----0----2-----2----|-0---------------0----2-----2----|
G#|-------1----0---------2-----2----|------1----0--------------2-----2----|-------1----0---------2-----2----|
D#|-----------------3----0-----0----|----------------3----3----0-----0----|-----------------3----0-----0----|

D#|----------------3----3------|-3-------|-------------------------|-----------------------------|
A#|-3--------------3----3------|-3-------|-------------------------|-----------------------------|
F#|-2--------------0----0------|-0-------|-------------------------|----------------------2------|
C#|-0--------------0----0------|-0-------|-2----2------2----2------|-2----2-----2----2----2------|
G#|------2----0----------------|---------|-2----2------2----2------|-2----2-----2----2----0------|
D#|----------------3----3------|-3-------|-3----0------3----0------|-3----0-----3----3-----------|

D#|---------|---------|-------------------------|--------------------|---------|---------------------------|
A#|---------|---------|-------------------------|--------------------|---------|---------------------------|
F#|-2-------|-2-------|-------------------------|--------------------|---------|---------------%----%------|
C#|-2-------|-2-------|------2-----------2------|------2------2------|-2-------|-2---2---2-----%----%------|
G#|-0-------|-0-------|------2-----------2------|------2------2------|-2-------|-2---2---2-----------------|
D#|---------|---------|-3----0------3----0------|-3----0------0------|-0-------|-0---0---0-----------------|

D#|---------|
A#|---------|
F#|-%-------|
C#|-%-------|
G#|---------|
D#|---------|
ACDC - Hail Caesar
ACDC - Hail Caesar.gp3