ACDC - Hard As A Rock

AC-DC



Title: Hard As A Rock
Album: 
Artist: 
Author: AC/DC

Track 1: Gitarre 1
E|---------|---------|---------|---------|---------|---------|---------|---------|---------|
B|---------|---------|---------|---------|---------|---------|---------|---------|---------|
G|-%-------|-%-------|-%-------|-%-------|-%-------|-%-------|-%-------|-%-------|-%-------|
D|-%-------|-%-------|-%-------|-%-------|-%-------|-%-------|-%-------|-%-------|-%-------|
A|---------|---------|---------|---------|---------|---------|---------|---------|---------|
E|---------|---------|---------|---------|---------|---------|---------|---------|---------|

E|--------------------|---------------|---------------|---------|--------------------|
B|--------------------|---------------|---------------|---------|--------------------|
G|-4------1------4----|-4-------1-----|-1-------4-----|-4-------|-4------1------4----|
D|-4------2------4----|-4-------2-----|-2-------4-----|-4-------|-4------2------4----|
A|-2------2------2----|-2-------2-----|-2-------2-----|-2-------|-2------2------2----|
E|--------0-----------|---------0-----|-0-------------|---------|--------0-----------|

E|---------------|---------------|---------|-----------------------------------------|
B|---------------|---------------|---------|-----------------------------------------|
G|-4-------1-----|-1-------4-----|-4-------|-1----4----%----4----%----4----%----4----|
D|-4-------2-----|-2-------4-----|-4-------|-2----4----%----4----%----4----%----4----|
A|-2-------2-----|-2-------2-----|-2-------|-2----2---------2---------2---------2----|
E|---------0-----|-0-------------|---------|-0---------------------------------------|

E|-----------------------------------------|-----------------------------------------|
B|-----------------------------------------|-----------------------------------------|
G|-1----4----%----4----%----4----%----4----|-1----4----%----4----%----4----%----4----|
D|-2----4----%----4----%----4----%----4----|-2----4----%----4----%----4----%----4----|
A|-2----2---------2---------2---------2----|-2----2---------2---------2---------2----|
E|-0---------------------------------------|-0---------------------------------------|

E|-----------------------------------------|-----------------------------------------|
B|-----------------------------------------|-----------------------------------------|
G|-1----4----%----4----%----4----%----4----|-1----4----%----4----%----4----%----4----|
D|-2----4----%----4----%----4----%----4----|-2----4----%----4----%----4----%----4----|
A|-2----2---------2---------2---------2----|-2----2---------2---------2---------2----|
E|-0---------------------------------------|-0---------------------------------------|

E|-----------------------------------------|-----------------------------------------|
B|-----------------------------------------|-----------------------------------------|
G|-1----4----%----4----%----4----%----4----|-1----4----%----4----%----4----%----4----|
D|-2----4----%----4----%----4----%----4----|-2----4----%----4----%----4----%----4----|
A|-2----2---------2---------2---------2----|-2----2---------2---------2---------2----|
E|-0---------------------------------------|-0---------------------------------------|

E|-----------------------------|-----------------------------------------|-----------------------------------------|
B|-----------------------------|-----------------------------------------|-----------------------------------------|
G|-2-----1----4----4------4----|-1----4----%----4----%----4----%----4----|-1----4----%----4----%----4----%----4----|
D|-2-----2----4----4------4----|-2----4----%----4----%----4----%----4----|-2----4----%----4----%----4----%----4----|
A|-0-----2----2----2------2----|-2----2---------2---------2---------2----|-2----2---------2---------2---------2----|
E|-------0---------------------|-0---------------------------------------|-0---------------------------------------|

E|-----------------------------------------|------------------------|---------------------------------|
B|-----------------------------------------|------------------------|---------------------------------|
G|-1----4----%----4----%----4----%----4----|-2-----1----4----4------|-2----%----1----4----4------1----|
D|-2----4----%----4----%----4----%----4----|-2-----2----4----4------|-2----%----2----4----4------2----|
A|-2----2---------2---------2---------2----|-0-----2----2----2------|-0---------2----2----2------2----|
E|-0---------------------------------------|-------0----------------|-----------0----------------0----|

E|-----------------------------------------|-------------------------------------|-----------------------------------------|
B|-----------------------------------------|-------------------------------------|-----------------------------------------|
G|-1----2----1----%----1----2----%----X----|-2----%----1----4----4-----2----1----|-1----2----1----%----1----2----1----X----|
D|-2----2----2----%----2----2----%----X----|-2----%----2----4----4----------2----|-2----2----2----%----2----2----2----X----|
A|-2----2----2---------2----2---------X----|-0---------2----2----2----------2----|-2----2----2---------2----2----2----X----|
E|-0----0----0---------0----0--------------|-----------0--------------------0----|-0----0----0---------0----0----0---------|

E|-------------------------------------|-----------------------------------------|---------------------------------|
B|-------------------------------------|-----------------------------------------|---------------------------------|
G|-2----%----1----4----4-----2----1----|-1----2----1----%----1----2----X----X----|-2----%----1----4----4-----------|
D|-2----%----2----4----4----------2----|-2----2----2----%----2----2----X----X----|-2----%----2----4----4-----------|
A|-0---------2----2----2----------2----|-2----2----2---------2----2----X----X----|-0---------2----2----2-----------|
E|-----------0--------------------0----|-0----0----0---------0----0--------------|-----------0----------------0----|

E|---------------------|---------|------------------------|-------------------|-------------------|
B|---------------------|---------|------------------------|-------------------|-------------------|
G|-1------2------1-----|-%-------|-4------1----------4----|-4-------2----1----|-1------------4----|
D|-2------2------2-----|-%-------|-4------2----------4----|-4-------2----2----|-2------------4----|
A|-2------0------2-----|---------|-2------2-----0----2----|-2-------2----2----|-2-------0----2----|
E|-0-------------0-----|---------|--------0---------------|--------------0----|-0-----------------|

E|---------|--------------------|-------------------|-------------------|---------|
B|---------|--------------------|-------------------|-------------------|---------|
G|-4-------|-4------1------4----|-4-------2----1----|-1-------2----4----|-4-------|
D|-4-------|-4------2------4----|-4-------2----2----|-2-------2----4----|-4-------|
A|-2-------|-2------2------2----|-2-------2----2----|-2-------0----2----|-2-------|
E|---------|--------0-----------|---------0----0----|-0-----------------|---------|

E|-----------------------------|----------------------------|-----------------------------|
B|-----------------------------|----------------------------|-----------------------------|
G|-4-----2-----2----1----%-----|-1----%---------4----4------|-4-----2-----2----1----%-----|
D|-4-----2-----2----2----%-----|-2----%---------4----4------|-4-----2-----2----2----%-----|
A|-2-----2-----2----2----------|-2--------------2----2------|-2-----2-----2----2----------|
E|------------------0----------|-0---------0----------------|------------------0----------|

E|----------------------------|----------------------------|-----------------------------|
B|----------------------------|----------------------------|-----------------------------|
G|-1----%---------4----4------|-1----%---------4----4------|-4-----2-----2----1----%-----|
D|-2----%---------4----4------|-2----%---------4----4------|-4-----2-----2----2----%-----|
A|-2---------0----2----2------|-2---------0----2----2------|-2-----2-----2----2----------|
E|-0--------------------------|-0--------------------------|------------------0----------|

E|----------------------------|-----------------------------|----------------------------|
B|----------------------------|-----------------------------|----------------------------|
G|-1----%---------4----4------|-4-----2-----2----1----%-----|-1----%---------4----4------|
D|-2----%---------4----4------|-4-----2-----2----2----%-----|-2----%---------4----4------|
A|-2---------0----2----2------|-2-----2-----2----2----------|-2---------0----2----2------|
E|-0--------------------------|------------------0----------|-0--------------------------|

E|-----------------------------|---------------------------------|----------------------------|
B|-----------------------------|---------------------------------|----------------------------|
G|-4-----2-----2----1----%-----|-1----%---------4----4------X----|-7--------------------------|
D|-4-----2-----2----2----%-----|-2----%---------4----4-----------|------9----9----9----9------|
A|-2-----2-----2----2----------|-2---------0----2----2-----------|----------------------------|
E|------------------0----------|-0-------------------------------|----------------------------|

E|----------------------------|----------------------7----X----7----|-7-----10----10-------7--------------|
B|----------------------------|-------------------------------------|---------------------------7----10---|
G|------------------7----%----|-9----9----9-----9-------------------|-----------------%-------------------|
D|-9------9----9---------%----|-------------------------------------|-----------------%-------------------|
A|----------------------------|-------------------------------------|-------------------------------------|
E|----------------------------|-------------------------------------|-------------------------------------|

E|--------------7----7----|-------------------------------------|------------------------------------|
B|-10----10----------7----|-9---------9---------7---------------|-----------------------9---9---9----|
G|------------------------|-9----7----9---------7---------------|-------------7----%----9---9---9----|
D|------------------------|----------------9----------X----X----|-9----9-----------%-----------------|
A|------------------------|-------------------------------------|------------------------------------|
E|------------------------|-------------------------------------|------------------------------------|

E|-----------------------------|-------------------------------------|--------------------------------------------|
B|-9----------10---10----10----|------15---------15------------------|-17---15---17--------17---17--15--17--------|
G|-9-----7----11---------------|-%---------16---------%----%----16---|----------------16---------------------%----|
D|-----------------------------|-%--------------------%----%---------|---------------------------------------%----|
A|-----------------------------|-------------------------------------|--------------------------------------------|
E|-----------------------------|-------------------------------------|--------------------------------------------|

E|-------------------------------12--------|-14-------------------------------------|
B|------12---12---12---15---15--------17---|------15--------------------------------|
G|-14--------------------------------------|-----------16--13--16---16----16---16---|
D|-----------------------------------------|----------------------------------------|
A|-----------------------------------------|----------------------------------------|
E|-----------------------------------------|----------------------------------------|

E|-------------------------|---------|-------------------------|--------------------|
B|-17-----15---------------|---------|-------------------------|--------------------|
G|-------------16----16----|-16------|-16-----%----%-----%-----|-4------1------4----|
D|-------------------------|---------|--------%----%-----%-----|-4------2------4----|
A|-------------------------|---------|-------------------------|-2------2------2----|
E|-------------------------|---------|-------------------------|--------0-----------|

E|-------------------|-------------------|---------|-------------------------------------|
B|-------------------|-------------------|---------|-------------------------------------|
G|-4-------%----1----|-1-------%----4----|-4-------|-4-----4----2----1----1----2----4----|
D|-4-------%----2----|-2-------%----4----|-4-------|-4-----4----2----2----2----2----4----|
A|-2------------2----|-2------------2----|-2-------|-2-----2---------2----2----2----2----|
E|--------------0----|-0-----------------|---------|-----------------0----0----0---------|

E|-------------------------------------|-------------------------------------|-----------------------------------------|
B|-------------------------------------|-------------------------------------|-----------------------------------------|
G|-4----4----4-----4----4----2----1----|-1----1----1-----1----1----2----1----|-1----1----1----1----1----1----2----1----|
D|-4----4----4-----4----4----2----2----|-2----2----2-----2----2----2----2----|-2----2----2----2----2----2----2----2----|
A|-2----2----2-----2----2---------2----|-2----2----2-----2----2----2----2----|-2----2----2----2----2----2----2----2----|
E|--------------------------------0----|-0----0----0-----0----0----0----0----|-0----0----0----0----0----0----0----0----|

E|-----------------------------------------|-----------------------------------------|
B|-----------------------------------------|-----------------------------------------|
G|-1----1----1----1----1----1----2----1----|-1----1----1----1----1----1----2----1----|
D|-2----2----2----2----2----2----2----2----|-2----2----2----2----2----2----2----2----|
A|-2----2----2----2----2----2----2----2----|-2----2----2----2----2----2----2----2----|
E|-0----0----0----0----0----0----0----0----|-0----0----0----0----0----0----0----0----|

E|---------|---------|------------------------|---------|---------|---------|
B|---------|---------|------------------------|---------|---------|---------|
G|-4-------|-1-------|-4------4-----4---4-----|-%-------|-%-------|-%-------|
D|-4-------|-2-------|-4------4-----4---4-----|-%-------|-%-------|-%-------|
A|-2-------|-2-------|-2------2-----2---2-----|---------|---------|---------|
E|---------|-0-------|------------------------|---------|---------|---------|
ACDC - Hard As A Rock
ACDC - Hard As A Rock.gp3