ACDC - Hard As A Rock (2)

ACDC - Hard As A Rock (2)

AC-DC



Title: Hard As A Rock
Album: Ballbreaker
Artist: AC/DC
Author: Malcolm Young / Angus Young

Track 1: Guitare 1
E|--------------2----4----|-5-----4----2----0----2----4----2----|-2-------4----0----|
B|--------------0----0----|-0-----0----0----0----0----0----0----|-0-------0----0----|
G|-%------%---------------|-------------------------------------|-------------------|
D|-%------%---------------|-------------------------------------|-------------------|
A|------------------------|-------------------------------------|-------------------|
E|------------------------|-------------------------------------|-------------------|

E|-0-------4----2----|-2-------2----4----|-5-----4----2----0----2----4----2----|-2-------4----0----|
B|-0-------0----0----|-0-------0----0----|-0-----0----0----0----0----0----0----|-0-------0----0----|
G|-------------------|-------------------|-------------------------------------|-------------------|
D|-------------------|-------------------|-------------------------------------|-------------------|
A|-------------------|-------------------|-------------------------------------|-------------------|
E|-------------------|-------------------|-------------------------------------|-------------------|

E|-0-------4----2----|-2-------2----4----|-5-----4----2----0----2----4----2----|-2-------4----0----|
B|-0-------0----0----|-0-------0----0----|-0-----0----0----0----0----0----0----|-0-------0----0----|
G|-------------------|-------------------|-------------------------------------|-------------------|
D|-------------------|-------------------|-------------------------------------|-------------------|
A|-------------------|-------------------|-------------------------------------|-------------------|
E|-------------------|-------------------|-------------------------------------|-------------------|

E|-0-------4----2----|-2-------2----4----|-5-----4----2----0----2----4----2----|-2-------4----0----|
B|-0-------0----0----|-0-------0----0----|-0-----0----0----0----0----0----0----|-0-------0----0----|
G|-------------------|-------------------|-------------------------------------|-------------------|
D|-------------------|-------------------|-------------------------------------|-------------------|
A|-------------------|-------------------|-------------------------------------|-------------------|
E|-------------------|-------------------|-------------------------------------|-------------------|

E|-0-------4----2----|-2-------|-----------------------------------------|-----------------------------------------|
B|-0-------0----0----|-0-------|-----------------------------------------|-----------------------------------------|
G|-------------------|---------|------4----%----4----%----4----%----4----|------4----%----4----%----4----%----4----|
D|-------------------|---------|-2----4----%----4----%----4----%----4----|-2----4----%----4----%----4----%----4----|
A|-------------------|---------|-2----2---------2---------2---------2----|-2----2---------2---------2---------2----|
E|-------------------|---------|-0---------------------------------------|-0---------------------------------------|

E|-----------------------------------------|-----------------------------------------|
B|-----------------------------------------|-----------------------------------------|
G|------4----%----4----%----4----%----4----|------4----%----4----%----4----%----4----|
D|-2----4----%----4----%----4----%----4----|-2----4----%----4----%----4----%----4----|
A|-2----2---------2---------2---------2----|-2----2---------2---------2---------2----|
E|-0---------------------------------------|-0---------------------------------------|

E|-----------------------------------------|-----------------------------|-----------------------------------------|
B|-----------------------------------------|-----------------------------|-----------------------------------------|
G|------4----%----4----%----4----%----4----|-2----------4----4------4----|------4----%----4----%----4----%----4----|
D|-2----4----%----4----%----4----%----4----|-2-----2----4----4------4----|-2----4----%----4----%----4----%----4----|
A|-2----2---------2---------2---------2----|-0-----2----2----2------2----|-2----2---------2---------2---------2----|
E|-0---------------------------------------|-0-----0---------------------|-0---------------------------------------|

E|-----------------------------------------|-----------------------------------------|
B|-----------------------------------------|-----------------------------------------|
G|------4----%----4----%----4----%----4----|------4----%----4----%----4----%----4----|
D|-2----4----%----4----%----4----%----4----|-2----4----%----4----%----4----%----4----|
A|-2----2---------2---------2---------2----|-2----2---------2---------2---------2----|
E|-0---------------------------------------|-0---------------------------------------|

E|------------------------|-5-----4----2----2------4----|-4----5----4----2----4----5----4----2----|
B|------------------------|-0-----0----0----0------0----|-0----0----0----0----0----0----0----0----|
G|-2----------4----4------|-----------------------------|-----------------------------------------|
D|-2-----2----4----4------|-----------------------------|-----------------------------------------|
A|-0-----2----2----2------|-----------------------------|-----------------------------------------|
E|-0-----0----------------|-----------------------------|-----------------------------------------|

E|-5-----4----2----2------4----|-4----5----4----2----4----5----4----2----|-5-----4----2----2------4----|
B|-0-----0----0----0------0----|-0----0----0----0----0----0----0----0----|-0-----0----0----0------0----|
G|-----------------------------|-----------------------------------------|-----------------------------|
D|-----------------------------|-----------------------------------------|-----------------------------|
A|-----------------------------|-----------------------------------------|-----------------------------|
E|-----------------------------|-----------------------------------------|-----------------------------|

E|-4----5----4----2----4----5----4----2----|-5-----4----2----2------|-------------------------|
B|-0----0----0----0----0----0----0----0----|-0-----0----0----0------|-------------------------|
G|-----------------------------------------|------------------------|--------2----2-----1-----|
D|-----------------------------------------|------------------------|-2------2----2-----2-----|
A|-----------------------------------------|------------------------|-2------0----0-----2-----|
E|-----------------------------------------|------------------------|-0-----------------0-----|

E|--------------2----4----|-5-----4----2----0----2----4----2----|-2-------4----0----|
B|--------------0----0----|-0-----0----0----0----0----0----0----|-0-------0----0----|
G|-%------%---------------|-------------------------------------|-------------------|
D|-%------%---------------|-------------------------------------|-------------------|
A|------------------------|-------------------------------------|-------------------|
E|------------------------|-------------------------------------|-------------------|

E|-0-------4----2----|-2-------2----4----|-5-----4----2----0----2----4----2----|-2-------4----0----|
B|-0-------0----0----|-0-------0----0----|-0-----0----0----0----0----0----0----|-0-------0----0----|
G|-------------------|-------------------|-------------------------------------|-------------------|
D|-------------------|-------------------|-------------------------------------|-------------------|
A|-------------------|-------------------|-------------------------------------|-------------------|
E|-------------------|-------------------|-------------------------------------|-------------------|

E|-0-------4----2----|-2-------|-------2-----2----0----------|-0-----0----------------|
B|-0-------0----0----|-0-------|-------0-----0----0----------|-0-----0----------------|
G|-------------------|---------|-%-----2-----2----1----%-----|-1-----1----4----4------|
D|-------------------|---------|-%-----2-----2----2----%-----|-2-----2----4----4------|
A|-------------------|---------|-------2-----2----2----------|-2-----2----2----2------|
E|-------------------|---------|------------------0----------|-0-----0----------------|

E|-------2-----2----0----------|-0----------------------|-----------------------------------------|
B|-------0-----0----0----------|-0----------------------|-----------------------------------------|
G|-4-----2-----2----1----%-----|-1-----2----4----4------|------4----%----4----%----4----%----4----|
D|-4-----2-----2----2----%-----|-2-----2----4----4------|-2----4----%----4----%----4----%----4----|
A|-2-----2-----2----2----------|-2-----0----2----2------|-2----2---------2---------2---------2----|
E|------------------0----------|-0----------------------|-0---------------------------------------|

E|-----------------------------------------|-----------------------------------------|
B|-----------------------------------------|-----------------------------------------|
G|------4----%----4----%----4----%----4----|------4----%----4----%----4----%----4----|
D|-2----4----%----4----%----4----%----4----|-2----4----%----4----%----4----%----4----|
A|-2----2---------2---------2---------2----|-2----2---------2---------2---------2----|
E|-0---------------------------------------|-0---------------------------------------|

E|-----------------------------|-----------------------------------------|-----------------------------------------|
B|-----------------------------|-----------------------------------------|-----------------------------------------|
G|-2----------4----4------4----|------4----%----4----%----4----%----4----|------4----%----4----%----4----%----4----|
D|-2-----2----4----4------4----|-2----4----%----4----%----4----%----4----|-2----4----%----4----%----4----%----4----|
A|-0-----2----2----2------2----|-2----2---------2---------2---------2----|-2----2---------2---------2---------2----|
E|-0-----0---------------------|-0---------------------------------------|-0---------------------------------------|

E|-----------------------------------------|------------------------|-5-----4----2----2------4----|
B|-----------------------------------------|------------------------|-0-----0----0----0------0----|
G|------4----%----4----%----4----%----4----|-2----------4----4------|-----------------------------|
D|-2----4----%----4----%----4----%----4----|-2-----2----4----4------|-----------------------------|
A|-2----2---------2---------2---------2----|-0-----2----2----2------|-----------------------------|
E|-0---------------------------------------|-0-----0----------------|-----------------------------|

E|-4----5----4----2----4----5----4----2----|-5-----4----2----2------4----|-4----5----4----2----4----5----4----2----|
B|-0----0----0----0----0----0----0----0----|-0-----0----0----0------0----|-0----0----0----0----0----0----0----0----|
G|-----------------------------------------|-----------------------------|-----------------------------------------|
D|-----------------------------------------|-----------------------------|-----------------------------------------|
A|-----------------------------------------|-----------------------------|-----------------------------------------|
E|-----------------------------------------|-----------------------------|-----------------------------------------|

E|-5-----4----2----2------4----|-4----5----4----2----4----5----4----2----|-5-----4----2----2------|
B|-0-----0----0----0------0----|-0----0----0----0----0----0----0----0----|-0-----0----0----0------|
G|-----------------------------|-----------------------------------------|------------------------|
D|-----------------------------|-----------------------------------------|------------------------|
A|-----------------------------|-----------------------------------------|------------------------|
E|-----------------------------|-----------------------------------------|------------------------|

E|-------------------------|--------------2----4----|-5-----4----2----0----2----4----2----|
B|-------------------------|--------------0----0----|-0-----0----0----0----0----0----0----|
G|--------2----2-----1-----|-%------%---------------|-------------------------------------|
D|-2------2----2-----2-----|-%------%---------------|-------------------------------------|
A|-2------0----0-----2-----|------------------------|-------------------------------------|
E|-0-----------------0-----|------------------------|-------------------------------------|

E|-2-------4----0----|-0-------4----2----|-2-------2----4----|-5-----4----2----0----2----4----2----|
B|-0-------0----0----|-0-------0----0----|-0-------0----0----|-0-----0----0----0----0----0----0----|
G|-------------------|-------------------|-------------------|-------------------------------------|
D|-------------------|-------------------|-------------------|-------------------------------------|
A|-------------------|-------------------|-------------------|-------------------------------------|
E|-------------------|-------------------|-------------------|-------------------------------------|

E|-2-------4----0----|-0-------4----2----|-2-------|-------2-----2----0----------|-0-----0----------------|
B|-0-------0----0----|-0-------0----0----|-0-------|-------0-----0----0----------|-0-----0----------------|
G|-------------------|-------------------|---------|-%-----2-----2----1----%-----|-1-----1----4----4------|
D|-------------------|-------------------|---------|-%-----2-----2----2----%-----|-2-----2----4----4------|
A|-------------------|-------------------|---------|-------2-----2----2----------|-2-----2----2----2------|
E|-------------------|-------------------|---------|------------------0----------|-0-----0----------------|

E|-------2-----2----0----------|-0----------------------|-------2-----2----0----------|
B|-------0-----0----0----------|-0----------------------|-------0-----0----0----------|
G|-4-----2-----2----1----%-----|-1-----2----4----4------|-4-----2-----2----1----%-----|
D|-4-----2-----2----2----%-----|-2-----2----4----4------|-4-----2-----2----2----%-----|
A|-2-----2-----2----2----------|-2-----0----2----2------|-2-----2-----2----2----------|
E|------------------0----------|-0----------------------|------------------0----------|

E|-0-----0----------------|-------2-----2---------------|-----------------------------|
B|-0-----0----------------|-------0-----0---------------|-----------------------------|
G|-1-----1----4----4------|-4-----2-----2---------%-----|-------2----4----4-----------|
D|-2-----2----4----4------|-4-----2-----2----2----%-----|-2-----2----4----4------2----|
A|-2-----2----2----2------|-2-----2-----2----2----------|-2-----0----2----2------2----|
E|-0-----0----------------|------------------0----------|-0----------------------0----|

E|-5-----4----2----2------4----|-4----5----4----2----4----5----4----2----|-5-----4----2----2------4----|
B|-0-----0----0----0------0----|-0----0----0----0----0----0----0----0----|-0-----0----0----0------0----|
G|-----------------------------|-----------------------------------------|-----------------------------|
D|-----------------------------|-----------------------------------------|-----------------------------|
A|-----------------------------|-----------------------------------------|-----------------------------|
E|-----------------------------|-----------------------------------------|-----------------------------|

E|-4----5----4----2----4----5----4----2----|-5-----4----2----2------4----|-4----5----4----2----4----5----4----2----|
B|-0----0----0----0----0----0----0----0----|-0-----0----0----0------0----|-0----0----0----0----0----0----0----0----|
G|-----------------------------------------|-----------------------------|-----------------------------------------|
D|-----------------------------------------|-----------------------------|-----------------------------------------|
A|-----------------------------------------|-----------------------------|-----------------------------------------|
E|-----------------------------------------|-----------------------------|-----------------------------------------|

E|-5-----4----2----2------4----|-4----5----4----2----4----5----4----2----|-5-----4----2----2------4----|
B|-0-----0----0----0------0----|-0----0----0----0----0----0----0----0----|-0-----0----0----0------0----|
G|-----------------------------|-----------------------------------------|-----------------------------|
D|-----------------------------|-----------------------------------------|-----------------------------|
A|-----------------------------|-----------------------------------------|-----------------------------|
E|-----------------------------|-----------------------------------------|-----------------------------|

E|-4----5----4----2----4----5----4----2----|-4----5----4----2----4----5----4----2----|
B|-0----0----0----0----0----0----0----0----|-0----0----0----0----0----0----0----0----|
G|-----------------------------------------|-----------------------------------------|
D|-----------------------------------------|-----------------------------------------|
A|-----------------------------------------|-----------------------------------------|
E|-----------------------------------------|-----------------------------------------|

E|-4----5----4----2----4----5----4----2----|-----------------------------|---------|
B|-0----0----0----0----0----0----0----0----|-----------------------------|---------|
G|-----------------------------------------|-2------2----2---------------|---------|
D|-----------------------------------------|-2------2----2----2----2-----|-2-------|
A|-----------------------------------------|-0------0----0----2----2-----|-2-------|
E|-----------------------------------------|------------------0----0-----|-0-------|

E|---------2----4----|-5-----4----2----0----2----4----2----|-2-------4----0----|-0-------4----2----|
B|---------0----0----|-0-----0----0----0----0----0----0----|-0-------0----0----|-0-------0----0----|
G|-------------------|-------------------------------------|-------------------|-------------------|
D|-2-----------------|-------------------------------------|-------------------|-------------------|
A|-2-----------------|-------------------------------------|-------------------|-------------------|
E|-0-----------------|-------------------------------------|-------------------|-------------------|

E|-2-------2----4----|-5-----4----2----0----2----4----2----|-2-------4----0----|-0-------4----2----|
B|-0-------0----0----|-0-----0----0----0----0----0----0----|-0-------0----0----|-0-------0----0----|
G|-------------------|-------------------------------------|-------------------|-------------------|
D|-------------------|-------------------------------------|-------------------|-------------------|
A|-------------------|-------------------------------------|-------------------|-------------------|
E|-------------------|-------------------------------------|-------------------|-------------------|

E|-2-------2----4----|-5-----4----2----0----2----4----2----|-2-------4----0----|-0-------4----2----|
B|-0-------0----0----|-0-----0----0----0----0----0----0----|-0-------0----0----|-0-------0----0----|
G|-------------------|-------------------------------------|-------------------|-------------------|
D|-------------------|-------------------------------------|-------------------|-------------------|
A|-------------------|-------------------------------------|-------------------|-------------------|
E|-------------------|-------------------------------------|-------------------|-------------------|

E|-2-------2----4----|-5-----4----2----0----2----4----2----|-2-------4----0----|-0-------4----2----|
B|-0-------0----0----|-0-----0----0----0----0----0----0----|-0-------0----0----|-0-------0----0----|
G|-------------------|-------------------------------------|-------------------|-------------------|
D|-------------------|-------------------------------------|-------------------|-------------------|
A|-------------------|-------------------------------------|-------------------|-------------------|
E|-------------------|-------------------------------------|-------------------|-------------------|

E|-2-------2----4----|-5-----4----2----0----2----4----2----|-2-------4----0----|-0-------4----2----|
B|-0-------0----0----|-0-----0----0----0----0----0----0----|-0-------0----0----|-0-------0----0----|
G|-------------------|-------------------------------------|-------------------|-------------------|
D|-------------------|-------------------------------------|-------------------|-------------------|
A|-------------------|-------------------------------------|-------------------|-------------------|
E|-------------------|-------------------------------------|-------------------|-------------------|

E|-2-------2----4----|-5-----4----2----0----2----4----2----|-2-------4----0----|-0-------0-----|
B|-0-------0----0----|-0-----0----0----0----0----0----0----|-0-------0----0----|-0-------0-----|
G|-------------------|-------------------------------------|-------------------|---------------|
D|-------------------|-------------------------------------|-------------------|---------------|
A|-------------------|-------------------------------------|-------------------|---------------|
E|-------------------|-------------------------------------|-------------------|---------------|

E|-0-------0----0----|---------|---------|-5-----4----2----2----2----4-----|-2-------|
B|-0-------0----0----|---------|---------|-0-----0----0----0---------0-----|-0-------|
G|-------------------|-%-------|-%-------|---------------------------------|---------|
D|-------------------|-%-------|-%-------|---------------------------------|---------|
A|-------------------|---------|---------|---------------------------------|---------|
E|-------------------|---------|---------|---------------------------------|---------|

E|-2-------|---------|
B|-0-------|---------|
G|---------|-%-------|
D|---------|-%-------|
A|---------|---------|
E|---------|---------|
ACDC - Hard As A Rock (2)
ACDC - Hard As A Rock (2).gp3