ACDC - Hell 's Bells (2)

AC-DC



Title: Hell's Bells
Album: Back In Black
Artist: 
Author: AC/DC

Track 1: Guitar 1
E|-----------------------------------------|-----------------------------------------|
B|-----------------------------------------|-----------------------------------------|
G|------9---------7----7--------------5----|-5--------------7----7-------------------|
D|-----------7--------------7--------------|------5-------------------7--------------|
A|-0-----------------------------0---------|-----------0-------------------0----0----|
E|-----------------------------------------|-----------------------------------------|

E|-----------------------------------------|-----------------------------------------|
B|-----------------------------------------|-----------------------------------------|
G|------9---------7----7--------------5----|-5--------------7----7-------------------|
D|-----------7--------------7--------------|------5-------------------5----5---------|
A|-0-----------------------------0---------|-----------0--------------3----2----0----|
E|-----------------------------------------|-----------------------------------------|

E|-----------------------------------------|-----------------------------------------|
B|-----------------------------------------|-----------------------------------------|
G|------9---------7----7--------------5----|-5--------------7----7-------------------|
D|-----------7--------------7--------------|------5-------------------7--------------|
A|-0-----------------------------0---------|-----------0-------------------0----0----|
E|-----------------------------------------|-----------------------------------------|

E|-----------------------------------------|-----------------------------------------|
B|-----------------------------------------|-----------------------------------------|
G|------9---------7----7--------------5----|-5--------------7----7-------------------|
D|-----------7--------------7--------------|------5-------------------5----5---------|
A|-0-----------------------------0---------|-----------0--------------3----2----0----|
E|-----------------------------------------|-----------------------------------------|

E|-----------------------------------------|-----------------------------------------|
B|-----------------------------------------|-----------------------------------------|
G|------9---------7----7--------------5----|-5--------------7----7-------------------|
D|-----------7--------------7--------------|------5-------------------7--------------|
A|-0-----------------------------0---------|-----------0-------------------0----0----|
E|-----------------------------------------|-----------------------------------------|

E|-----------------------------------------|-----------------------------------------|
B|-----------------------------------------|-----------------------------------------|
G|------9---------7----7--------------5----|-5--------------7----7-------------------|
D|-----------7--------------7--------------|------5-------------------5----5---------|
A|-0-----------------------------0---------|-----------0--------------3----2----0----|
E|-----------------------------------------|-----------------------------------------|

E|-----------------------------------------|-----------------------------------------|
B|-----------------------------------------|-----------------------------------------|
G|------9---------7----7--------------5----|-5--------------7----7-------------------|
D|-----------7--------------7--------------|------5-------------------7--------------|
A|-0-----------------------------0---------|-----------0-------------------0----0----|
E|-----------------------------------------|-----------------------------------------|

E|-----------------------------------------|-----------------------------------------|
B|-----------------------------------------|-----------------------------------------|
G|------9---------7----7--------------5----|-5--------------7----7-------------------|
D|-----------7--------------7--------------|------5-------------------5----5---------|
A|-0-----------------------------0---------|-----------0--------------3----2----0----|
E|-----------------------------------------|-----------------------------------------|

E|-----------------------------------------|-----------------------------------------|
B|-----------------------------------------|-----------------------------------------|
G|------9---------7----7--------------5----|-5--------------7----7-------------------|
D|-----------7--------------7--------------|------5-------------------7--------------|
A|-0-----------------------------0---------|-----------0-------------------0----0----|
E|-----------------------------------------|-----------------------------------------|

E|-----------------------------------------|-----------------------------------------|
B|-----------------------------------------|-----------------------------------------|
G|------9---------7----7--------------5----|-5--------------7----7-------------------|
D|-----------7--------------7--------------|------5-------------------5----5---------|
A|-0-----------------------------0---------|-----------0--------------3----2----0----|
E|-----------------------------------------|-----------------------------------------|

E|-----------------------------------------|-----------------------------------------|
B|-----------------------------------------|-----------------------------------------|
G|------9---------7----7--------------5----|-5--------------7----7-------------------|
D|-----------7--------------7--------------|------5-------------------7--------------|
A|-0-----------------------------0---------|-----------0-------------------0----0----|
E|-----------------------------------------|-----------------------------------------|

E|-----------------------------------------|-----------------------------------------|
B|------------------------------------3----|-3----3---------3----3-------------------|
G|------9---------7----7--------------0----|-0----0---------2----2-------------------|
D|-----------7--------------7---------0----|-0----0----0----0----0-------------------|
A|-0-----------------------------0----X----|-0----X----0--------------3----2----0----|
E|------------------------------------3----|-3----3----------------------------------|

E|-----------------------------------------|-------------------------|-----------------------------------------|
B|-----------------------------------------|-------------------------|-----------------------------------------|
G|------9----7----9----%----7----5----7----|-7-----------------------|------9----7----9----%----7----5----7----|
D|------7----7----7----%----7----5----7----|-7-----------5-----5-----|------7----7----7----%----7----5----7----|
A|-0---------------------------------------|--------0----3-----2-----|-0---------------------------------------|
E|-----------------------------------------|-------------------------|-----------------------------------------|

E|-------------------------|-----------------------------------------|---------------------------------|
B|-------------------------|-----------------------------------------|---------------------------------|
G|-7-----------------------|---------------------%----7---------7----|-%-------------------------------|
D|-7-----------5-----5-----|------2----0----2----%----7----5----7----|-%-------------------5-----5-----|
A|--------0----3-----2-----|-0----0----0----0---------5----5----5----|------5----5----0----3-----2-----|
E|-------------------------|-----------------------------------------|---------------------------------|

E|-----------------------------------------|---------------------------------|-----------------------------------------|
B|-----------------------------------------|---------------------------------|-----------------------------------------|
G|---------------------%----7---------7----|-%-------------------------------|---------------------%----7---------7----|
D|------2----0----2----%----7----5----7----|-%-------------------5-----5-----|------2----0----2----%----7----5----7----|
A|-0----0----0----0---------5----5----5----|------5----5----0----3-----2-----|-0----0----0----0---------5----5----5----|
E|-----------------------------------------|---------------------------------|-----------------------------------------|

E|---------------------------------|-----------------------------------------|---------------------------------|
B|---------------------------------|-----------------------------------------|---------------------------------|
G|-%-------------------------------|---------------------%----7---------7----|-7---------7---------------------|
D|-%-------------------5-----5-----|------2----0----2----%----7----5----7----|-7---------7---------5-----5-----|
A|------5----5----0----3-----2-----|-0----0----0----0---------5----5----5----|-5----5----5----0----3-----2-----|
E|---------------------------------|-----------------------------------------|---------------------------------|

E|-----------------------------------------|---------------------------------|-----------------------------------------|
B|------3---------3----3----3----3----3----|-3----3----3---------------3-----|-3----3----3----3----3----3----0----3----|
G|------2----0----2----2----2----0----2----|-2----2----2----0----5-----0-----|-2----2----0----2----2----2----0----2----|
D|-0----0----0----0----0----0----0----0----|-0----0----0----0----5-----0-----|-0----0----0----0----0----0----0----0----|
A|-----------------------------------------|---------------------3-----X-----|-----------------------------------------|
E|-----------------------------------------|---------------------------3-----|-----------------------------------------|

E|---------------------------------|-----------------------------------------|---------------------------------|
B|-3----3----3----0----------3-----|-----------------------------------------|-3-------------------3-----------|
G|-2----2----2----0----5-----0-----|------9---------9----9----9---------9----|-9----9----9----0----2-----2-----|
D|-0----0----0----0----5-----0-----|------9----7----9----9----9----7----9----|-9----9----9----0----0-----2-----|
A|---------------------3-----X-----|------7----7----7----7----7----7----7----|-7----7----7---------------0-----|
E|---------------------------3-----|-0---------0-------------------0---------|---------------------------------|

E|-----------------------------------------|---------------------------------|-----------------------------------------|
B|-----------------------------------------|---------------------3-----3-----|-----------------------------------------|
G|------9---------9----9----9---------9----|-9----9----9----0----0-----0-----|------9---------7----7--------------5----|
D|------9----7----9----9----9----7----9----|-9----9----9----0----0-----0-----|-----------7--------------7--------------|
A|------7----7----7----7----7----7----7----|-7----7----7---------X-----X-----|-0-----------------------------0---------|
E|-0---------0-------------------0---------|---------------------3-----3-----|-----------------------------------------|

E|-----------------------------------------|-----------------------------------------|
B|-----------------------------------------|-----------------------------------------|
G|-5--------------7----7-------------------|------9---------7----7--------------5----|
D|------5-------------------7--------------|-----------7--------------7--------------|
A|-----------0-------------------0----0----|-0-----------------------------0---------|
E|-----------------------------------------|-----------------------------------------|

E|-----------------------------------------|-----------------------------------------|
B|-----------------------------------------|-----------------------------------------|
G|-5--------------7----7-------------------|------9---------7----7--------------5----|
D|------5-------------------5----5---------|-----------7--------------7--------------|
A|-----------0--------------3----2----0----|-0-----------------------------0---------|
E|-----------------------------------------|-----------------------------------------|

E|-----------------------------------------|-----------------------------------------|
B|-----------------------------------------|------------------------------------3----|
G|-5--------------7----7-------------------|------9---------7----7--------------0----|
D|------5-------------------7--------------|-----------7--------------7---------0----|
A|-----------0-------------------0----0----|-0-----------------------------0----X----|
E|-----------------------------------------|------------------------------------3----|

E|-----------------------------------------|-----------------------------------------|
B|-3----3---------3----3-------------------|-----------------------------------------|
G|-0----0---------2----2-------------------|------9----7----9----%----7----5----7----|
D|-0----0----0----0----0-------------------|------7----7----7----%----7----5----7----|
A|-0----X----0--------------3----2----0----|-0---------------------------------------|
E|-3----3----------------------------------|-----------------------------------------|

E|-------------------------|-----------------------------------------|-------------------------|
B|-------------------------|-----------------------------------------|-------------------------|
G|-7-----------------------|------9----7----9----%----7----5----7----|-7-----------------------|
D|-7-----------5-----5-----|------7----7----7----%----7----5----7----|-7-----------5-----5-----|
A|--------0----3-----2-----|-0---------------------------------------|--------0----3-----2-----|
E|-------------------------|-----------------------------------------|-------------------------|

E|-----------------------------------------|---------------------------------|-----------------------------------------|
B|-----------------------------------------|---------------------------------|-----------------------------------------|
G|---------------------%----7----5----7----|-%-------------------------------|---------------------%----7----5----7----|
D|------2----0----2----%----7----5----7----|-%-------------------5-----5-----|------2----0----2----%----7----5----7----|
A|-0----0----0----0---------5---------5----|------5----5----0----3-----2-----|-0----0----0----0---------5---------5----|
E|-----------------------------------------|---------------------------------|-----------------------------------------|

E|---------------------------------|-----------------------------------------|---------------------------------|
B|---------------------------------|-----------------------------------------|---------------------------------|
G|-%-------------------------------|---------------------%----7----5----7----|-%-------------------------------|
D|-%-------------------5-----5-----|------2----0----2----%----7----5----7----|-%-------------------5-----5-----|
A|------5----5----0----3-----2-----|-0----0----0----0---------5---------5----|------5----5----0----3-----2-----|
E|---------------------------------|-----------------------------------------|---------------------------------|

E|-----------------------------------------|---------------------------------|-----------------------------------------|
B|-----------------------------------------|---------------------------------|------3---------3----3----3----3----3----|
G|---------------------%----7----5----7----|-7---------7---------------------|------2----0----2----2----2----0----2----|
D|------2----0----2----%----7----5----7----|-7---------7---------5-----5-----|-0----0----0----0----0----0----0----0----|
A|-0----0----0----0---------5---------5----|-5----5----5----0----3-----2-----|-----------------------------------------|
E|-----------------------------------------|---------------------------------|-----------------------------------------|

E|---------------------------------|-----------------------------------------|---------------------------------|
B|-3----3----3---------------3-----|-3----3----3----3----3----3----0----3----|-3----3----3----0----------3-----|
G|-2----2----2----0----5-----0-----|-2----2----0----2----2----2----0----2----|-2----2----2----0----5-----0-----|
D|-0----0----0----0----5-----0-----|-0----0----0----0----0----0----0----0----|-0----0----0----0----5-----0-----|
A|---------------------3-----X-----|-----------------------------------------|---------------------3-----X-----|
E|---------------------------3-----|-----------------------------------------|---------------------------3-----|

E|-----------------------------------------|---------------------------------|-----------------------------------------|
B|-----------------------------------------|---------------------3-----------|-----------------------------------------|
G|------9---------9----9----9---------9----|-9----9----9----0----2-----2-----|------9---------9----9----9---------9----|
D|------9----7----9----9----9----7----9----|-9----9----9----0----0-----2-----|------9----7----9----9----9----7----9----|
A|------7----7----7----7----7----7----7----|-7----7----7---------------0-----|------7----7----7----7----7----7----7----|
E|-0---------0-------------------0---------|---------------------------------|-0---------0-------------------0---------|

E|---------------------------------|-----------------------------------------|-----------------------------------------|
B|-3-------------------3-----3-----|-----------------------------------------|-----------------------------------------|
G|-9----9----9----0----0-----0-----|------9---------7----7--------------5----|-5--------------7----7-------------------|
D|-9----9----9----0----0-----0-----|-----------7--------------7--------------|------5-------------------7--------------|
A|-7----7----7---------X-----X-----|-0-----------------------------0---------|-----------0-------------------0----0----|
E|---------------------3-----3-----|-----------------------------------------|-----------------------------------------|

E|-----------------------------------------|-----------------------------------------|
B|-----------------------------------------|-----------------------------------------|
G|------9---------7----7--------------5----|-5--------------7----7-------------------|
D|-----------7--------------7--------------|------5-------------------5----5---------|
A|-0-----------------------------0---------|-----------0--------------3----2----0----|
E|-----------------------------------------|-----------------------------------------|

E|-----------------------------------------|-----------------------------------------|
B|-----------------------------------------|-----------------------------------------|
G|------9---------7----7--------------5----|-5--------------7----7-------------------|
D|-----------7--------------7--------------|------5-------------------7--------------|
A|-0-----------------------------0---------|-----------0-------------------0----0----|
E|-----------------------------------------|-----------------------------------------|

E|------------------------------------3----|-3----3----------------------------------|
B|------------------------------------3----|-3----3---------3----3-------------------|
G|------9---------7----7--------------0----|-0----0---------2----2--------------2----|
D|-----------7--------------7---------0----|-0----0---------0----0----5----5----2----|
A|-0-----------------------------0----X----|-0----X----0--------------3----2----0----|
E|------------------------------------3----|-3----3----0-----------------------------|

E|---------|-----------------------------------------|-------------5--------------|
B|---------|------8----7----5----7----5--------------|-------------5----7----7----|
G|-2-------|-%----7----7---------7----5--------------|--------%---------7----7----|
D|-2-------|-%-----------------------------7----7----|-7------%-------------------|
A|-0-------|-----------------------------------------|----------------------------|
E|---------|-----------------------------------------|----------------------------|

E|---------------|-----------------------------------|------------------------------------|
B|-7------7------|-----------------------------------|------------------------------------|
G|-7------7------|-%---------------------------------|---------%----2---------------7-----|
D|---------------|-%----5---7---7-----4---5---5------|-2---4---%---------7----7-----------|
A|---------------|-----------------------------------|------------------------------------|
E|---------------|-----------------------------------|------------------------------------|

E|-------------------------------------------------|-----------------------------------------------|
B|------8----------8---8-------8---8-------8---8---|-----8---8----8----8----------------7----5-----|
G|-7---------7-----9---9---9---9---9---%---9---9---|-%---7---7----7----7----5---0-------7----5-----|
D|-------------------------------------%-----------|-%------------------------------7--------------|
A|-------------------------------------------------|-----------------------------------------------|
E|-------------------------------------------------|-----------------------------------------------|

E|-------------------------|----------------------------------------|-----------------------------------------------------------------------|
B|------8------7----7------|------8----8---------10---10----10------|-13------------13------------13------------13--13------13------13------|
G|-9----9------7----7------|-9----9----9----11---11---11----11--9---|-14--14--12-14-----14--12-14-----14--12-14-14--14--14------14------14--|
D|-------------------------|----------------------------------------|-----------------------------------------------------------------------|
A|-------------------------|----------------------------------------|-----------------------------------------------------------------------|
E|-------------------------|----------------------------------------|-----------------------------------------------------------------------|

E|-12---12-----10---10-------------|-10---------------------10------|--------------10------10--------------------------|
B|-13---13-----13---13---X---------|-13----12----10----10------10---|-10---13--10------10--10---10---10---10-----------|
G|----------------------------X----|--------------------------------|-0----------------------------------------%---14--|
D|---------------------------------|--------------------------------|------------------------------------------%-------|
A|---------------------------------|--------------------------------|--------------------------------------------------|
E|---------------------------------|--------------------------------|--------------------------------------------------|

E|------------17---------17--------|-17---17---17------------------------------|-------------------------------17------|
B|-15---17---------17--------17----|-17---17---19----15--18--15------15--------|-------20------------20------------20--|
G|---------------------------------|-----------------------------16--------0---|-19----21----19--19------19------------|
D|---------------------------------|-------------------------------------------|---------------------------------------|
A|---------------------------------|-------------------------------------------|---------------------------------------|
E|---------------------------------|-------------------------------------------|---------------------------------------|

E|-------------------------------------------------------|-17--20--17------17--------------20----20----|
B|-17--------------------------------20---20---20----22--|-------------20------20--20--17--------------|
G|------19---17------19--18------------------------------|---------------------------------------------|
D|---------------19----------19--17----------------------|---------------------------------------------|
A|-------------------------------------------------------|---------------------------------------------|
E|-------------------------------------------------------|---------------------------------------------|

E|-17-------------------------------------------|-----------------------------------------|
B|-----20--17-----------------------------------|-----------------------------------------|
G|-------------19---%-----------17--------------|------9---------7----7--------------5----|
D|------------------%---17--19--------19---19---|-----------7--------------7--------------|
A|----------------------------------------------|-0-----------------------------0---------|
E|----------------------------------------------|-----------------------------------------|

E|-----------------------------------------|-----------------------------------------|
B|-----------------------------------------|-----------------------------------------|
G|-5--------------7----7-------------------|------9---------7----7--------------5----|
D|------5-------------------7--------------|-----------7--------------7--------------|
A|-----------0-------------------0----0----|-0-----------------------------0---------|
E|-----------------------------------------|-----------------------------------------|

E|-----------------------------------------|-----------------------------------------|
B|-----------------------------------------|-----------------------------------------|
G|-5--------------7----7-------------------|------9---------7----7--------------5----|
D|------5-------------------5----5---------|-----------7--------------7--------------|
A|-----------0--------------3----2----0----|-0-----------------------------0---------|
E|-----------------------------------------|-----------------------------------------|

E|-----------------------------------------|-----------------------------------------|
B|-----------------------------------------|------------------------------------5----|
G|-5--------------7----7-------------------|------9---------7----7--------------5----|
D|------5-------------------7--------------|-----------7--------------7---------5----|
A|-----------0-------------------0----0----|-0-----------------------------0----3----|
E|-----------------------------------------|-----------------------------------------|

E|-----------------------------------------|------17-------------------------|-------------------------|
B|-5---------------------------------------|---------------------------------|-------------------------|
G|-5---------7----7--------------%----19---|-19---19---19---19---19-----17---|-17-----19---19-----19---|
D|-5---------7----7----5----5----%---------|---------------------5-----------|-------------------------|
A|-3----0----5----5----3----2--------------|-2-------------------------------|-------------------------|
E|-----------------------------------------|---------------------------------|-------------------------|

E|------17-------------------------|-------------------------|------17-------------------------|
B|---------------------------------|-------------------------|---------------------------------|
G|-19---19---19---19---19-----17---|-17-----19---19-----19---|-19---19---19---19---19-----17---|
D|---------------------------------|-------------------------|---------------------------------|
A|---------------------------------|-------------------------|---------------------------------|
E|---------------------------------|-------------------------|---------------------------------|

E|-------------------------|------17-------------------------|-------------------------|
B|-------------------------|---------------------------------|-------------------------|
G|-17-----19---19-----19---|-19---19---19---19---19-----17---|-17----------------------|
D|-------------------------|---------------------------------|-------------------------|
A|-------------------------|---------------------------------|--------12---12----5-----|
E|-------------------------|---------------------------------|-------------------------|

E|-------------------------------------|--------------------------------|-----------------------------------------|
B|-------------------------------------|--------------------------------|------10---10---10---10-------------13---|
G|---------------------------%---------|------------5---7---7-----5-----|-%----12---12---12---12---2----%---------|
D|------7----5----7----7-----%----7----|-7-----7------------------------|-%-----------------------------%---------|
A|-------------------------------------|--------------------------------|-----------------------------------------|
E|-X-----------------------------------|--------------------------------|-----------------------------------------|

E|-----------------------------------------|-----------------------------------------|
B|-13------------------13------------------|------10---10---10---10-------------20---|
G|------14---12--14--------14----14---14---|-%----12---12---12---12---4--------------|
D|-----------------------------------------|-%---------------------------------------|
A|-----------------------------------------|-----------------------------------------|
E|-----------------------------------------|-------------------------------X---------|

E|-----17--------------17-------------------------|------------------------------17-------------------------------|
B|-20------17--20--20------17---20----20----------|-----20--20--20--20---20--20------20--17-------------------20--|
G|------------------------------------------0-----|------------------------------------------19---17--19--19------|
D|---------------------------------------------0--|---------------------------------------------------------------|
A|------------------------------------------------|-0-------------------------------------------------------------|
E|------------------------------------------------|---------------------------------------------------------------|

E|-------------------------------|---------------------------------|----------------------------|
B|-20-----20---20----20----20----|-20--------------19----17---17---|----------------------------|
G|-19-----21---19----19----19----|-19----17--------19----17---17---|-%----2---------2----%------|
D|-------------------------------|-------0----19-------------------|-%----2---------2----%------|
A|-------------------------------|-------0-------------------------|------0---------0-----------|
E|-------------------------------|---------------------------------|-----------3----------------|
ACDC - Hell 's Bells (2)
ACDC - Hell_'s Bells (2).gp3