ACDC - Hells Bells

ACDC - Hells Bells

AC-DC



Title: Hells Bells
Album: 
Artist: 
Author: AC/DC

Track 1: Guitar 1
E|-----------------------------------------|-----------------------------------------|
B|-----------------------------------------|-----------------------------------------|
G|------9---------7----7--------------5----|-5--------------7----7-------------------|
D|-----------7--------------7--------------|------5---------7----7----7--------------|
A|-0-----------------------------0---------|-----------0-------------------0----0----|
E|-----------------------------------------|-----------------------------------------|

E|-----------------------------------------|-----------------------------------------|
B|-----------------------------------------|-----------------------------------------|
G|------9---------7----7--------------5----|-5--------------7----7-------------------|
D|-----------7--------------7--------------|------5---------7----7----5----5---------|
A|-0-----------------------------0---------|-----------0--------------3----2----0----|
E|-----------------------------------------|-----------------------------------------|

E|-----------------------------------------|-----------------------------------------|
B|-----------------------------------------|-----------------------------------------|
G|------9---------7----7--------------5----|-5--------------7----7-------------------|
D|-----------7--------------7--------------|------5---------7----7----7--------------|
A|-0-----------------------------0---------|-----------0-------------------0----0----|
E|-----------------------------------------|-----------------------------------------|

E|-----------------------------------------|-----------------------------------------|
B|-----------------------------------------|-----------------------------------------|
G|------9---------7----7--------------5----|-5--------------7----7-------------------|
D|-----------7--------------7--------------|------5---------7----7----5----5---------|
A|-0-----------------------------0---------|-----------0--------------3----2----0----|
E|-----------------------------------------|-----------------------------------------|

E|-----------------------------------------|-----------------------------------------|
B|-----------------------------------------|-----------------------------------------|
G|------9---------7----7--------------5----|-5--------------7----7-------------------|
D|-----------7--------------7--------------|------5---------7----7----7--------------|
A|-0-----------------------------0---------|-----------0-------------------0----0----|
E|-----------------------------------------|-----------------------------------------|

E|-----------------------------------------|-----------------------------------------|
B|-----------------------------------------|-----------------------------------------|
G|------9---------7----7--------------5----|-5--------------7----7-------------------|
D|-----------7--------------7--------------|------5---------7----7----5----5---------|
A|-0-----------------------------0---------|-----------0--------------3----2----0----|
E|-----------------------------------------|-----------------------------------------|

E|-----------------------------------------|-----------------------------------------|
B|-----------------------------------------|-----------------------------------------|
G|------9---------7----7--------------5----|-5--------------7----7-------------------|
D|-----------7--------------7--------------|------5---------7----7----7--------------|
A|-0-----------------------------0---------|-----------0-------------------0----0----|
E|-----------------------------------------|-----------------------------------------|

E|-----------------------------------------|-----------------------------------------|
B|-----------------------------------------|-----------------------------------------|
G|------9---------7----7--------------5----|-5--------------7----7-------------------|
D|-----------7--------------7--------------|------5---------7----7----5----5---------|
A|-0-----------------------------0---------|-----------0--------------3----2----0----|
E|-----------------------------------------|-----------------------------------------|

E|-----------------------------------------|-----------------------------------------|
B|-----------------------------------------|-----------------------------------------|
G|------9---------7----7--------------5----|-5--------------7----7-------------------|
D|-----------7--------------7--------------|------5---------7----7----7--------------|
A|-0-----------------------------0---------|-----------0-------------------0----0----|
E|-----------------------------------------|-----------------------------------------|

E|-----------------------------------------|-----------------------------------------|
B|-----------------------------------------|-----------------------------------------|
G|------9---------7----7--------------5----|-5--------------7----7-------------------|
D|-----------7--------------7--------------|------5---------7----7----5----5---------|
A|-0-----------------------------0---------|-----------0--------------3----2----0----|
E|-----------------------------------------|-----------------------------------------|

E|-----------------------------------------|-----------------------------------------|
B|-----------------------------------------|-----------------------------------------|
G|------9---------7----7--------------5----|-5--------------7----7-------------------|
D|-----------7--------------7--------------|------5---------7----7----7--------------|
A|-0-----------------------------0---------|-----------0-------------------0----0----|
E|-----------------------------------------|-----------------------------------------|

E|------------------------------------3----|-3----3----------------------------------|
B|------------------------------------3----|-3----3---------3----3-------------------|
G|------9---------7----7--------------0----|-0----0---------2----2-------------------|
D|-----------7----7----7----7---------0----|-0----0---------0----0----5----5---------|
A|-0-----------------------------0---------|----------------0----0----3----2----0----|
E|------------------------------------3----|-3----3----0----2----2-------------------|

E|-----------------------------------------|-----------------------------|-----------------------------------------|
B|--------------------------3---------3----|-----------------------------|--------------------------3---------3----|
G|------2--------------%----2----0----2----|-%-----%---------------------|------2-------------------2----0----2----|
D|------2----0----2----%----0----0----0----|-%-----%---------5-----5-----|------2----0----2---------0----0----0----|
A|-0---------0----0------------------------|------------0----3-----2-----|-0---------0----0----0-------------------|
E|-----------------------------------------|-----------------------------|-----------------------------------------|

E|---------------------------------|-----------------------------------------|---------------------------------|
B|---------------------------------|--------------------------3---------3----|---------------------------------|
G|---------------------------------|------2---------2----%----2----0----2----|-----------2---------------------|
D|-0----0----0---------5-----5-----|-2----2----0----2----%----0----0----0----|-0----0----0---------5-----5-----|
A|----------------0----3-----2-----|-0---------0----0------------------------|----------------0----3-----2-----|
E|---------------------------------|-----------------------------------------|---------------------------------|

E|-----------------------------------------|---------------------------------|-----------------------------------------|
B|--------------------------3---------3----|-----------3---------------------|--------------------------3---------3----|
G|------2---------2----%----2----0----2----|-----------2---------------------|------2---------2----%----2----0----2----|
D|-2----2----0----2----%----0----0----0----|-0----0----0---------5-----5-----|-2----2----0----2----%----0----0----0----|
A|-0---------0----0------------------------|----------------0----3-----2-----|-0---------0----0------------------------|
E|-----------------------------------------|---------------------------------|-----------------------------------------|

E|---------------------------------|-----------------------------------------|---------------------------------|
B|-----------3---------------------|--------------------------3---------3----|-3----3----3---------------------|
G|-----------2---------------------|------2---------2----%----2----0----2----|-2----2----2---------------------|
D|-0----0----0---------5-----5-----|-2----2----0----2----%----0----0----0----|-0----0----0---------5-----5-----|
A|----------------0----3-----2-----|-0---------0----0------------------------|----------------0----3-----2-----|
E|---------------------------------|-----------------------------------------|---------------------------------|

E|----------------2----2----2---------2----|-2----2----2---------------3-----|-----------0----2----2----2----0----2----|
B|------3---------3----3----3----3----3----|-3----3----3---------5-----3-----|------3----3----3----3----3----3----3----|
G|------2----0----2----2----2----0----2----|-2----2----2----0----5-----0-----|------2----0----2----2----2----0----2----|
D|-0----0----0----0----0----0----0----0----|-0----0----0----0----5-----0-----|-0----0----0----0----0----0----0----0----|
A|-----------------------------------------|---------------------3-----------|-----------------------------------------|
E|-----------------------------------------|---------------------------3-----|-----------------------------------------|

E|-2----2----2---------------3-----|-----------------------------------------|---------------------2-----------|
B|-3----3----3---------5-----3-----|------9-------------------9---------9----|-9----9----9---------3-----------|
G|-2----2----2----0----5-----0-----|------9---------9----9----9---------9----|-9----9----9---------2-----2-----|
D|-0----0----0----0----5-----0-----|------9----7----9----9----9----7----9----|-9----9----9----0----0-----2-----|
A|---------------------3-----------|------7----7----7----7----7----7----7----|-7----7----7----0----0-----0-----|
E|---------------------------3-----|-0---------0----0----0---------0---------|---------------------------------|

E|-----------------------------------------|---------------------3-----3-----|-----------------------------------------|
B|----------------9----9----9---------9----|-9----9----9---------3-----3-----|-----------------------------------------|
G|------9---------9----9----9---------9----|-9----9----9----0----0-----0-----|------9---------7----7--------------5----|
D|------9----7----9----9----9----7----9----|-9----9----9----0----0-----0-----|-----------7--------------7--------------|
A|------7----7----7----7----7----7----7----|-7----7----7----0----------------|-0-----------------------------0---------|
E|-0---------0-------------------0---------|---------------------3-----3-----|-----------------------------------------|

E|-----------------------------------------|-----------------------------------------|
B|-----------------------------------------|-----------------------------------------|
G|-5--------------7----7-------------------|------9---------7----7--------------5----|
D|------5---------7----7----7--------------|-----------7--------------7--------------|
A|-----------0-------------------0----0----|-0-----------------------------0---------|
E|-----------------------------------------|-----------------------------------------|

E|-----------------------------------------|-----------------------------------------|
B|-----------------------------------------|-----------------------------------------|
G|-5--------------7----7-------------------|------9---------7----7--------------5----|
D|------5---------7----7----5----5---------|-----------7--------------7--------------|
A|-----------0--------------3----2----0----|-0-----------------------------0---------|
E|-----------------------------------------|-----------------------------------------|

E|-----------------------------------------|------------------------------------3----|
B|-----------------------------------------|------------------------------------3----|
G|-5--------------7----7-------------------|------9---------7----7--------------0----|
D|------5---------7----7----7--------------|-----------7----7----7----7---------0----|
A|-----------0-------------------0----0----|-0-----------------------------0---------|
E|-----------------------------------------|------------------------------------3----|

E|-3----3---------2----2-------------------|-----------------------------------------|
B|-3----3---------3----3-------------------|--------------------------3---------3----|
G|-0----0---------2----2-------------------|------2----0----2----2----2----0----2----|
D|-0----0---------0----0----5----5---------|------2----0----2----2----0----0----0----|
A|----------------0----0----3----2----0----|-0---------0----0----0-------------------|
E|-3----3----0----2----2-------------------|-----------------------------------------|

E|---------------------------------|-----------------------------------------|---------------------------------|
B|---------------------------------|--------------------------3---------3----|-3-------------------------------|
G|---------------------------------|------2----0----2---------2----0----2----|-2-------------------------------|
D|-0----0----0---------5-----5-----|------2----0----2---------0----0----0----|-0----0----0---------5-----5-----|
A|----------------0----3-----2-----|-0---------0----0----0-------------------|----------------0----3-----2-----|
E|---------------------------------|-----------------------------------------|---------------------------------|

E|-----------------------------------------|---------------------------------|-----------------------------------------|
B|--------------------------3---------3----|---------------------------------|--------------------------3---------3----|
G|------2---------2----%----2----0----2----|-----------2---------------------|------2---------2----%----2----0----2----|
D|-2----2----0----2----%----0----0----0----|-0----0----0---------5-----5-----|-2----2----0----2----%----0----0----0----|
A|-0---------0----0------------------------|----------------0----3-----2-----|-0---------0----0------------------------|
E|-----------------------------------------|---------------------------------|-----------------------------------------|

E|---------------------------------|-----------------------------------------|---------------------------------|
B|-----------3---------------------|--------------------------3---------3----|-----------3---------------------|
G|-----------2---------------------|------2---------2----%----2----0----2----|-----------2---------------------|
D|-0----0----0---------5-----5-----|-2----2----0----2----%----0----0----0----|-0----0----0---------5-----5-----|
A|----------------0----3-----2-----|-0---------0----0------------------------|----------------0----3-----2-----|
E|---------------------------------|-----------------------------------------|---------------------------------|

E|-----------------------------------------|---------------------------------|----------------2----2----2---------2----|
B|--------------------------3---------3----|-3----3----3---------------------|------3---------3----3----3----3----3----|
G|------2---------2----%----2----0----2----|-2----2----2---------------------|------2----0----2----2----2----0----2----|
D|-2----2----0----2----%----0----0----0----|-0----0----0---------5-----5-----|-0----0----0----0----0----0----0----0----|
A|-0---------0----0------------------------|----------------0----3-----2-----|-----------------------------------------|
E|-----------------------------------------|---------------------------------|-----------------------------------------|

E|-2----2----2---------------3-----|-----------0----2----2----2----0----2----|-2----2----2---------------3-----|
B|-3----3----3---------5-----3-----|------3----3----3----3----3----3----3----|-3----3----3---------5-----3-----|
G|-2----2----2----0----5-----0-----|------2----0----2----2----2----0----2----|-2----2----2----0----5-----0-----|
D|-0----0----0----0----5-----0-----|-0----0----0----0----0----0----0----0----|-0----0----0----0----5-----0-----|
A|---------------------3-----------|-----------------------------------------|---------------------3-----------|
E|---------------------------3-----|-----------------------------------------|---------------------------3-----|

E|-----------------------------------------|---------------------2-----------|-----------------------------------------|
B|------9-------------------9---------9----|-9----9----9---------3-----------|----------------9----9----9---------9----|
G|------9---------9----9----9---------9----|-9----9----9---------2-----2-----|------9---------9----9----9---------9----|
D|------9----7----9----9----9----7----9----|-9----9----9----0----0-----2-----|------9----7----9----9----9----7----9----|
A|------7----7----7----7----7----7----7----|-7----7----7----0----0-----0-----|------7----7----7----7----7----7----7----|
E|-0---------0----0----0---------0---------|---------------------------------|-0---------0-------------------0---------|

E|---------------------3-----3-----|-----------------------------------------|-----------------------------------------|
B|-9----9----9---------3-----3-----|-----------------------------------------|-----------------------------------------|
G|-9----9----9----0----0-----0-----|------9---------7----7--------------5----|-5--------------7----7-------------------|
D|-9----9----9----0----0-----0-----|-----------7--------------7--------------|------5---------7----7----7--------------|
A|-7----7----7----0----------------|-0-----------------------------0---------|-----------0-------------------0----0----|
E|---------------------3-----3-----|-----------------------------------------|-----------------------------------------|

E|-----------------------------------------|-----------------------------------------|
B|-----------------------------------------|-----------------------------------------|
G|------9---------7----7--------------5----|-5--------------7----7-------------------|
D|-----------7--------------7--------------|------5---------7----7----5----5---------|
A|-0-----------------------------0---------|-----------0--------------3----2----0----|
E|-----------------------------------------|-----------------------------------------|

E|-----------------------------------------|-----------------------------------------|
B|-----------------------------------------|-----------------------------------------|
G|------9---------7----7--------------5----|-5--------------7----7-------------------|
D|-----------7--------------7--------------|------5---------7----7----7--------------|
A|-0-----------------------------0---------|-----------0-------------------0----0----|
E|-----------------------------------------|-----------------------------------------|

E|------------------------------------3----|-3----3---------2----2-------------------|
B|------------------------------------3----|-3----3---------3----3-------------------|
G|------9---------7----7--------------0----|-0----0---------2----2--------------2----|
D|-----------7----7----7----7---------0----|-0----0---------0----0----5----5----2----|
A|-0-----------------------------0---------|----------------0----0----3----2----0----|
E|------------------------------------3----|-3----3----0----2----2-------------------|

E|---------|--------------------|---------|---------|-------------------------------------|
B|---------|--------------------|---------|---------|-------------------------------------|
G|-2-------|-2------2------2----|-2-------|-2-------|-2----2---------2----2----------5----|
D|-2-------|-2------2------2----|-2-------|-2-------|-2----2---------2----2----------5----|
A|-0-------|-0------0------0----|-0-------|-0-------|-0----0---------0----0----------3----|
E|---------|--------------------|---------|---------|-----------3---------------0---------|

E|-----------------------------|-------------------------------------|---------------------------------|
B|-----------------------------|-------------------------------------|---------------------------------|
G|-5----------7----7-----7-----|------2---------2----2----------5----|-5----------7----7----7----7-----|
D|-5----------7----7-----7-----|------2---------2----2----------5----|-5----------7----7----7----7-----|
A|-3----------5----5-----5-----|-X----0---------0----0----------3----|-3----------5----5----5----5-----|
E|-------0---------------------|-----------3---------------0---------|-------0-------------------------|

E|-------------------------------------|---------------------------------|-------------------------------------|
B|-------------------------------------|---------------------------------|-------------------------------------|
G|------2---------2----2----------5----|-5----------7----7----7----7-----|------2---------2----2----------5----|
D|------2---------2----2----------5----|-5----------7----7----7----7-----|------2---------2----2----------5----|
A|-X----0---------0----0----------3----|-3----------5----5----5----5-----|-X----0---------0----0----------3----|
E|-----------3---------------0---------|-------0-------------------------|-----------3---------------0---------|

E|---------------------------------|-----------------------------------------|---------------------------3-----|
B|---------------------------------|-3----3---------3----3----3---------3----|-3----3----3---------------3-----|
G|-5----------7----7----7----7-----|-2----2----0----2----2----2----0----2----|-2----2----2---------5-----0-----|
D|-5----------7----7----7----7-----|-0----0----0----0----0----0----0----0----|-0----0----0---------5-----0-----|
A|-3----------5----5----5----5-----|-----------------------------------------|---------------------3-----------|
E|-------0-------------------------|-----------------------------------------|----------------0----------3-----|

E|-----------------------------------------|---------------------------3-----|-----------------------------------------|
B|-3----3---------3----3----3---------3----|-3----3----3---------------3-----|------9---------9----9----9--------------|
G|-2----2----0----2----2----2----0----2----|-2----2----2---------5-----0-----|------9----7----9----9----9----7----9----|
D|-0----0----0----0----0----0----0----0----|-0----0----0---------5-----0-----|------9----7----9----9----9----7----9----|
A|-----------------------------------------|---------------------3-----------|------7----7----7----7----7----7----7----|
E|-----------------------------------------|----------------0----------3-----|-0--------------0----0--------------0----|

E|---------------------2-----------|-----------------------------------------|---------------------3-----3-----|
B|------9----9---------3-----2-----|------9---------9----9----9---------9----|------9----9---------3-----3-----|
G|------9----9---------2-----2-----|------9----7----9----9----9----7----9----|------9----9---------0-----0-----|
D|------9----9---------0-----2-----|------9----7----9----9----9----7----9----|------9----9---------0-----0-----|
A|------7----7----0----------0-----|------7----7----7----7----7----7----7----|------7----7----0----------------|
E|-0---------0---------------------|-0--------------0----0-------------------|-0--------------0----3-----3-----|

E|-----------------------------------------|-----------------------------------------|
B|-----------------------------------------|-----------------------------------------|
G|------9---------7----7--------------5----|-5--------------7----7-------------------|
D|-----------7--------------7--------------|------5---------7----7----7--------------|
A|-0-----------------------------0---------|-----------0-------------------0----0----|
E|-----------------------------------------|-----------------------------------------|

E|-----------------------------------------|-----------------------------------------|
B|-----------------------------------------|-----------------------------------------|
G|------9---------7----7--------------5----|-5--------------7----7-------------------|
D|-----------7--------------7--------------|------5---------7----7----5----5---------|
A|-0-----------------------------0---------|-----------0--------------3----2----0----|
E|-----------------------------------------|-----------------------------------------|

E|-----------------------------------------|-----------------------------------------|
B|-----------------------------------------|-----------------------------------------|
G|------9---------7----7--------------5----|-5--------------7----7-------------------|
D|-----------7--------------7--------------|------5---------7----7----7--------------|
A|-0-----------------------------0---------|-----------0-------------------0----0----|
E|-----------------------------------------|-----------------------------------------|

E|-----------------------------------------|-----------------------------------------|
B|-----------------------------------------|-----------------------------------------|
G|------9---------7----7--------------5----|-5----5---------7----7-------------------|
D|------7---------7----7----7---------5----|-5----5---------7----7----5----5---------|
A|-0---------0-------------------0----3----|-3----3----0----5----5----3----2----0----|
E|-----------------------------------------|-----------------------------------------|

E|-----------------------------------------|-----------------------------------------|
B|-----------------------------------------|-----------------------------------------|
G|------9---------7----7--------------5----|-5--------------7----7-------------------|
D|------7----7----7----7----7--------------|------5-------------------7--------------|
A|-0-----------------------------0---------|-----------0-------------------0----0----|
E|-----------------------------------------|-----------------------------------------|

E|-----------------------------------------|-----------------------------------------|
B|-----------------------------------------|-----------------------------------------|
G|------9---------7----7--------------5----|-5----5---------7----7-------------------|
D|------7---------7----7----7---------5----|-5----5---------7----7----5----5---------|
A|-0---------0-------------------0----3----|-3----3----0----5----5----3----2----0----|
E|-----------------------------------------|-----------------------------------------|

E|-----------------------------------------|-----------------------------------------|
B|-----------------------------------------|-----------------------------------------|
G|------9---------7----7--------------5----|-5--------------7----7-------------------|
D|------7----7----7----7----7--------------|------5-------------------7--------------|
A|-0-----------------------------0---------|-----------0-------------------0----0----|
E|-----------------------------------------|-----------------------------------------|

E|-----------------------------------------|-----------------------------------------|
B|-----------------------------------------|-----------------------------------------|
G|------9---------7----7--------------5----|-5----5---------7----7----7----7----7----|
D|------7---------7----7----7---------5----|-5----5---------7----7----7----7----7----|
A|-0---------0-------------------0----3----|-3----3----0----5----5----5----5----5----|
E|-----------------------------------------|-----------0-----------------------------|

E|-------------------------------------|---------------------------------|-------------------------------------|
B|-------------------------------------|---------------------------------|-------------------------------------|
G|------2---------2----2----------5----|-5----------7----7----7----7-----|------2---------2----2----------5----|
D|------2---------2----2----------5----|-5----------7----7----7----7-----|------2---------2----2----------5----|
A|-X----0---------0----0----------3----|-3----------5----5----5----5-----|-X----0---------0----0----------3----|
E|-----------3---------------0---------|-------0-------------------------|-----------3---------------0---------|

E|---------------------------------|-------------------------------------|---------------------------------|
B|---------------------------------|-------------------------------------|---------------------------------|
G|-5----------7----7----7----7-----|------2---------2----2----------5----|-5----------7----7----7----7-----|
D|-5----------7----7----7----7-----|------2---------2----2----------5----|-5----------7----7----7----7-----|
A|-3----------5----5----5----5-----|-X----0---------0----0----------3----|-3----------5----5----5----5-----|
E|-------0-------------------------|-----------3---------------0---------|-------0-------------------------|

E|-------------------------------|---------------|---------|----------------------------|
B|-------------------------------|---------------|---------|----------------------------|
G|-%----2----2------------2------|-5------7------|-7-------|-7----2---------2----%------|
D|-%----2----2------------2------|-5------7------|-7-------|-7----2---------2----%------|
A|------0----0------------0------|-3------5------|-5-------|-5----0---------0-----------|
E|---------------3---3-----------|---------------|---------|-----------3----------------|
ACDC - Hells Bells
ACDC - Hells Bells.gp3