ACDC - Highway to Hell (2)

ACDC - Highway to Hell (2)

AC-DC



Title: Highway to Hell
Album: 
Artist: 
Author: AC/DC

Track 1: Guitar
E|---------|----------------------------|----------------------------|----------------------------|
B|---------|-------------2----2----2----|-------------3----3----3----|-------------3----3----3----|
G|-%-------|-%------%----2----2----2----|-%------%----2----2----0----|-%------%----2----2----0----|
D|-%-------|-%------%----2----2----2----|-%------%----0----0----0----|-%------%----0----0----0----|
A|---------|-------------0----0----0----|-------------X----X----X----|-------------X----X----X----|
E|---------|----------------------------|-------------2----2----3----|-------------2----2----3----|

E|-----------------------------------------|----------------------------|----------------------------|
B|------3----3----3---------3---------2----|-2-----------2----2----2----|-------------3----3----3----|
G|-%----2----2----0----%----2----%----2----|-2----%------2----2----2----|-%------%----2----2----0----|
D|-%----0----0----0----%----0----%----2----|-2----%------2----2----2----|-%------%----0----0----0----|
A|------X----X----X---------X---------0----|-0-----------0----0----0----|-------------X----X----X----|
E|------2----2----3---------2--------------|----------------------------|-------------2----2----3----|

E|----------------------------|-----------------------------------------|----------------------------|
B|-------------3----3----3----|------3----3----3---------3---------2----|-2-----------2----2----2----|
G|-%------%----2----2----0----|-%----2----2----0----%----2----%----2----|-2----%------2----2----2----|
D|-%------%----0----0----0----|-%----0----0----0----%----0----%----2----|-2----%------2----2----2----|
A|-------------X----X----X----|------X----X----X---------X---------0----|-0-----------0----0----0----|
E|-------------2----2----3----|------2----2----3---------2--------------|----------------------------|

E|----------------------------|----------------------------|-----------------------------------------|
B|-------------3----3----3----|-------------3----3----3----|------3----3----3---------3---------2----|
G|-%------%----2----2----0----|-%------%----2----2----0----|-%----2----2----0----%----2----%----2----|
D|-%------%----0----0----0----|-%------%----0----0----0----|-%----0----0----0----%----0----%----2----|
A|-------------X----X----X----|-------------X----X----X----|------X----X----X---------X---------0----|
E|-------------2----2----3----|-------------2----2----3----|------2----2----3---------2--------------|

E|----------------------------|----------------------------|----------------------------|
B|-2-----------2----2----2----|-------------3----3----3----|-------------3----3----3----|
G|-2----%------2----2----2----|-%------%----2----2----0----|-%------%----2----2----0----|
D|-2----%------2----2----2----|-%------%----0----0----0----|-%------%----0----0----0----|
A|-0-----------0----0----0----|-------------X----X----X----|-------------X----X----X----|
E|----------------------------|-------------2----2----3----|-------------2----2----3----|

E|-----------------------------------------|----------------------------|----------------------------|
B|------3----3----3---------3---------2----|-2-----------2----2----2----|-------------3----3----3----|
G|-%----2----2----0----%----2----%----2----|-2----%------2----2----2----|-%------%----2----2----0----|
D|-%----0----0----0----%----0----%----2----|-2----%------2----2----2----|-%------%----0----0----0----|
A|------X----X----X---------X---------0----|-0-----------0----0----0----|-------------X----X----X----|
E|------2----2----3---------2--------------|----------------------------|-------------2----2----3----|

E|----------------------------|-----------------------------------------|----------------------------|
B|-------------3----3----3----|------3----3----3---------3---------2----|-2-----------2----2----2----|
G|-%------%----2----2----0----|-%----2----2----0----%----2----%----2----|-2----%------2----2----2----|
D|-%------%----0----0----0----|-%----0----0----0----%----0----%----2----|-2----%------2----2----2----|
A|-------------X----X----X----|------X----X----X---------X---------0----|-0-----------0----0----0----|
E|-------------2----2----3----|------2----2----3---------2--------------|----------------------------|

E|----------------------------|----------------------------|-----------------------------------------|
B|-------------3----3----3----|-------------3----3----3----|------3----3----3---------3---------2----|
G|-%------%----2----2----0----|-%------%----2----2----0----|-%----2----2----0----%----2----%----2----|
D|-%------%----0----0----0----|-%------%----0----0----0----|-%----0----0----0----%----0----%----2----|
A|-------------X----X----X----|-------------X----X----X----|------X----X----X---------X---------0----|
E|-------------2----2----3----|-------------2----2----3----|------2----2----3---------2--------------|

E|-----------------------------------------|-----------------------------------------|
B|-----------------------------------------|-----------------------------------------|
G|-----------------------------------------|-----------------------------------------|
D|-2---------------------------------------|-2----2----2----2----2----2----2----2----|
A|-2---------2----2----2----2----2----2----|-2----2----2----2----2----2----2----2----|
E|-0----0----0----0----0----0----0----0----|-0----0----0----0----0----0----0----0----|

E|-------------------|---------------------------------|-------------------|---------------------------------|
B|-2------------3----|-3----3----3----0----3-----3-----|-2------------3----|-3----3----3----0----3-----3-----|
G|-2------------2----|-2----2----2----0----0-----2-----|-2------------2----|-2----2----2----0----0-----2-----|
D|-2-------2----0----|-0----0----0----0----0-----0-----|-2-------2----0----|-0----0----0----0----0-----0-----|
A|-0-------0---------|---------------------X-----------|-0-------0---------|---------------------X-----------|
E|-------------------|---------------------3-----------|-------------------|---------------------3-----------|

E|-------------------|---------------------------------|-------------------|---------|
B|-2------------3----|-3----3----3----0----3-----3-----|-2------------3----|-3-------|
G|-2------------2----|-2----2----2----0----0-----2-----|-2------------2----|-2-------|
D|-2-------2----0----|-0----0----0----0----0-----0-----|-2-------2----0----|-0-------|
A|-0-------0---------|---------------------X-----------|-0-------0---------|---------|
E|-------------------|---------------------3-----------|-------------------|---------|

E|----------------------------|----------------------------|----------------------------|
B|-3------3----2----2----2----|-------------3----3----3----|-------------3----3----3----|
G|-2------2----2----2----2----|-%------%----2----2----0----|-%------%----2----2----0----|
D|-0------0----2----2----2----|-%------%----0----0----0----|-%------%----0----0----0----|
A|-------------0----0----0----|-------------X----X----X----|-------------X----X----X----|
E|----------------------------|-------------2----2----3----|-------------2----2----3----|

E|-----------------------------------------|----------------------------|----------------------------|
B|------3----3----3---------3---------2----|-2-----------2----2----2----|-------------3----3----3----|
G|-%----2----2----0----%----2----%----2----|-2----%------2----2----2----|-%------%----2----2----0----|
D|-%----0----0----0----%----0----%----2----|-2----%------2----2----2----|-%------%----0----0----0----|
A|------X----X----X---------X---------0----|-0-----------0----0----0----|-------------X----X----X----|
E|------2----2----3---------2--------------|----------------------------|-------------2----2----3----|

E|----------------------------|-----------------------------------------|----------------------------|
B|-------------3----3----3----|------3----3----3---------3---------2----|-2-----------2----2----2----|
G|-%------%----2----2----0----|-%----2----2----0----%----2----%----2----|-2----%------2----2----2----|
D|-%------%----0----0----0----|-%----0----0----0----%----0----%----2----|-2----%------2----2----2----|
A|-------------X----X----X----|------X----X----X---------X---------0----|-0-----------0----0----0----|
E|-------------2----2----3----|------2----2----3---------2--------------|----------------------------|

E|----------------------------|----------------------------|-----------------------------------------|
B|-------------3----3----3----|-------------3----3----3----|------3----3----3---------3---------2----|
G|-%------%----2----2----0----|-%------%----2----2----0----|-%----2----2----0----%----2----%----2----|
D|-%------%----0----0----0----|-%------%----0----0----0----|-%----0----0----0----%----0----%----2----|
A|-------------X----X----X----|-------------X----X----X----|------X----X----X---------X---------0----|
E|-------------2----2----3----|-------------2----2----3----|------2----2----3---------2--------------|

E|----------------------------|----------------------------|----------------------------|
B|-2-----------2----2----2----|-------------3----3----3----|-------------3----3----3----|
G|-2----%------2----2----2----|-%------%----2----2----0----|-%------%----2----2----0----|
D|-2----%------2----2----2----|-%------%----0----0----0----|-%------%----0----0----0----|
A|-0-----------0----0----0----|-------------X----X----X----|-------------X----X----X----|
E|----------------------------|-------------2----2----3----|-------------2----2----3----|

E|-----------------------------------------|-----------------------------------------|
B|------3----3----3---------3---------2----|-----------------------------------------|
G|-%----2----2----0----%----2----%----2----|-----------------------------------------|
D|-%----0----0----0----%----0----%----2----|-2---------------------------------------|
A|------X----X----X---------X---------0----|-2---------2----2----2----2----2----2----|
E|------2----2----3---------2--------------|-0----0----0----0----0----0----0----0----|

E|-----------------------------------------|-------------------|---------------------------------|
B|-----------------------------------------|-2------------3----|-3----3----3----0----3-----3-----|
G|-----------------------------------------|-2------------2----|-2----2----2----0----0-----2-----|
D|-2----2----2----2----2----2----2----2----|-2-------2----0----|-0----0----0----0----0-----0-----|
A|-2----2----2----2----2----2----2----2----|-0-------0---------|---------------------X-----------|
E|-0----0----0----0----0----0----0----0----|-------------------|---------------------3-----------|

E|-------------------|---------------------------------|-------------------|---------------------------------|
B|-2------------3----|-3----3----3----0----3-----3-----|-2------------3----|-3----3----3----0----3-----3-----|
G|-2------------2----|-2----2----2----0----0-----2-----|-2------------2----|-2----2----2----0----0-----2-----|
D|-2-------2----0----|-0----0----0----0----0-----0-----|-2-------2----0----|-0----0----0----0----0-----0-----|
A|-0-------0---------|---------------------X-----------|-0-------0---------|---------------------X-----------|
E|-------------------|---------------------3-----------|-------------------|---------------------3-----------|

E|------------------------|---------|-2----2----2----3----3----3----2-----|-2-------|
B|-2------2----------3----|-3-------|-3----3----3----3----3----3----3-----|-3-------|
G|-2------2----------2----|-2-------|-2----2----2----0----0----0----2-----|-2-------|
D|-2------2-----2----0----|-0-------|-0----0----0----0--------------0-----|-0-------|
A|-0------0-----0---------|---------|-------------------------------------|---------|
E|------------------------|---------|-------------------------------------|---------|

E|-2----2----2----3----3----3----2-----|------3----3----3----2-----2---------|-----------5-----------------------------|
B|-3----3----3----3----3----3----3-----|------0----0----0----3-----3----3----|------5--------------5----5---------5----|
G|-2----2----2----0----0----0----2-----|-2----0----0----0----2-----2---------|-7--------------7--------------7---------|
D|-0----0----0----0--------------0-----|-0----0----0----0----0-----0---------|-----------------------------------------|
A|-------------------------------------|-------------------------------------|-----------------------------------------|
E|-------------------------------------|-------------------------------------|-----------------------------------------|

E|-----------------------------------------|---------------------------------|-----------------------------------------|
B|-5---------5----5---------5----5----7----|-7------7----5-------------------|-----------------------------------------|
G|------7--------------7--------------7----|-7------7----5---------7----5----|-5---------------------------------------|
D|-----------------------------------------|------------------7--------------|-----------4----4----4----2--------------|
A|-----------------------------------------|---------------------------------|------0------------------------3----0----|
E|-----------------------------------------|---------------------------------|-----------------------------------------|

E|-------------5---------------|-----------------5---------------|----------------------------5----|
B|------------------5----------|-----------------5---------5-----|-5-------------------------------|
G|-2-----4---------------4-----|-2-----0--------------0----4-----|-4-----2-----0---------2---------|
D|-----------------------------|---------------------------------|---------------------------------|
A|-----------------------------|------------0--------------------|------------------0--------------|
E|-----------------------------|---------------------------------|---------------------------------|

E|-----------------------------|---------|------15----15---12------------------|---------|
B|-5---------------------------|---------|----------------------14-------------|---------|
G|------4----4-----14----18----|-%-------|-%-------------------------14---14---|-%-------|
D|-----------------------------|-%-------|-%-----------------------------------|-%-------|
A|-----------------------------|---------|-------------------------------------|---------|
E|-----------------------------|---------|-------------------------------------|---------|

E|------12---12----12--------------|------------------------|--------------------------15-------------|
B|------13---13----13--------------|------------------------|------13---13---13---13--------13---13---|
G|-%---------------------14---11---|-14-----14---%-----%----|-%---------------------------------------|
D|-%-------------------------------|-------------%-----%----|-%---------------------------------------|
A|---------------------------------|------------------------|-----------------------------------------|
E|---------------------------------|------------------------|-----------------------------------------|

E|--------------------|-------12--------------------|--------------------|-------12----12--------------|
B|-13-----13----------|-------13----------13--------|--------------------|-------13----13----13--------|
G|--------------%-----|-%------------%---------14---|-14----%------%-----|-%----------------------14---|
D|--------------%-----|-%------------%--------------|-------%------%-----|-%---------------------------|
A|--------------------|-----------------------------|--------------------|-----------------------------|
E|--------------------|-----------------------------|--------------------|-----------------------------|

E|-------12--------------------|-----------------12----12---12---|-12------------------12---12-------------|
B|--------------13--------14---|-12----13--------13----13---13---|-13---13---13---13---13---13-------------|
G|-14----------------14--------|------------%--------------------|-------------------------------14--------|
D|-----------------------------|------------%--------------------|------------------------------------16---|
A|-----------------------------|---------------------------------|-----------------------------------------|
E|-----------------------------|---------------------------------|-----------------------------------------|

E|-----------------12---------13---|-13------|-13-----------------|
B|-------13---13-------------------|---------|--------------------|
G|-14--------------------%---------|---------|-------%------%-----|
D|-----------------------%---------|---------|-------%------%-----|
A|---------------------------------|---------|--------------------|
E|---------------------------------|---------|--------------------|
ACDC - Highway to Hell (2)
ACDC - Highway to Hell (2).gp3