ACDC - Highway To Hell (3)

AC-DC



Title: Highway to Hell
Album: Highway to Hell
Artist: AC/DC
Author: AC/DC

Track 1: Guitar 1 
D#|---------------------|----------------------------|----------------------------|
A#|---------------------|-------------3----3----3----|-------------3----3----3----|
F#|-%----2----2----2----|-%------%----2----2----0----|-%------%----2----2----0----|
C#|-%----2----2----2----|-%------%----0----0----0----|-%------%----0----0----0----|
G#|------0----0----0----|-------------X----X----X----|-------------X----X----X----|
D#|---------------------|-------------2----2----3----|-------------2----2----3----|

D#|-----------------------------------------|---------------------------------|----------------------------|
A#|------3----3----3---------3--------------|---------------------------------|-------------3----3----3----|
F#|-%----2----2----0----%----2----%----2----|-2-----%-----%----2----2----2----|-%------%----2----2----0----|
C#|-%----0----0----0----%----0----%----2----|-2-----%-----%----2----2----2----|-%------%----0----0----0----|
G#|------X----X----X---------X---------0----|-0----------------0----0----0----|-------------X----X----X----|
D#|------2----2----3---------2--------------|---------------------------------|-------------2----2----3----|

D#|----------------------------|-----------------------------------------|---------------------------------|
A#|-------------3----3----3----|------3----3----3---------3--------------|---------------------------------|
F#|-%------%----2----2----0----|-%----2----2----0----%----2----%----2----|-2-----%-----%----2----2----2----|
C#|-%------%----0----0----0----|-%----0----0----0----%----0----%----2----|-2-----%-----%----2----2----2----|
G#|-------------X----X----X----|------X----X----X---------X---------0----|-0----------------0----0----0----|
D#|-------------2----2----3----|------2----2----3---------2--------------|---------------------------------|

D#|-------------------------------------|-----------------------------------------|
A#|-------------------------------------|-----------------------------------------|
F#|-------------------------------------|-----------------------------------------|
C#|-2-----2----2----2----2----2----2----|-2----2----2----2----2----2----2----2----|
G#|-2-----2----2----2----2----2----2----|-2----2----2----2----2----2----2----2----|
D#|-0-----0----0----0----0----0----0----|-0----0----0----0----0----0----0----0----|

D#|--------------2----|-2----2----2---------3-----2-----|--------------2----|-2----2----2---------3-----2-----|
A#|-2------------3----|-3----3----3---------3-----3-----|-2------------3----|-3----3----3---------3-----3-----|
F#|-2-------0----2----|-2----2----2---------0-----2-----|-2-------0----2----|-2----2----2---------0-----2-----|
C#|-2-------0----0----|-0----0----0---------0-----0-----|-2-------0----0----|-0----0----0---------0-----0-----|
G#|-0-----------------|---------------------X-----X-----|-0-----------------|---------------------X-----X-----|
D#|-------------------|----------------0----3-----2-----|-------------------|----------------0----3-----2-----|

D#|--------------2----|-2----2----2---------3-----2-----|--------------2----|-2-------|
A#|-2------------3----|-3----3----3---------3-----3-----|-2------------3----|-3-------|
F#|-2-------0----2----|-2----2----2---------0-----2-----|-2-------0----2----|-2-------|
C#|-2-------0----0----|-0----0----0---------0-----0-----|-2-------0----0----|-0-------|
G#|-0-----------------|---------------------X-----X-----|-0-----------------|---------|
D#|-------------------|----------------0----3-----2-----|-------------------|---------|

D#|-2------2-------------------|----------------------------|----------------------------|
A#|-3------3-------------------|-------------3----3----3----|-------------3----3----3----|
F#|-2------2----2----2----2----|-%------%----2----2----0----|-%------%----2----2----0----|
C#|-0------0----2----2----2----|-%------%----0----0----0----|-%------%----0----0----0----|
G#|-------------0----0----0----|-------------X----X----X----|-------------X----X----X----|
D#|----------------------------|-------------2----2----3----|-------------2----2----3----|

D#|-----------------------------------------|---------------------------------|-------------------------------------|
A#|------3----3----3---------3--------------|---------------------------------|-------------------------------------|
F#|-%----2----2----0----%----2----%----2----|-2-----%-----%----2----2----2----|-------------------------------------|
C#|-%----0----0----0----%----0----%----2----|-2-----%-----%----2----2----2----|-2-----2----2----2----2----2----2----|
G#|------X----X----X---------X---------0----|-0----------------0----0----0----|-2-----2----2----2----2----2----2----|
D#|------2----2----3---------2--------------|---------------------------------|-0-----0----0----0----0----0----0----|

D#|-----------------------------------------|--------------2----|-2----2----2---------3-----2-----|
A#|-----------------------------------------|-2------------3----|-3----3----3---------3-----3-----|
F#|-----------------------------------------|-2-------0----2----|-2----2----2---------0-----2-----|
C#|-2----2----2----2----2----2----2----2----|-2-------0----0----|-0----0----0---------0-----0-----|
G#|-2----2----2----2----2----2----2----2----|-0-----------------|---------------------X-----X-----|
D#|-0----0----0----0----0----0----0----0----|-------------------|----------------0----3-----2-----|

D#|--------------2----|-2----2----2---------3-----2-----|--------------2----|-2----2----2---------3-----2-----|
A#|-2------------3----|-3----3----3---------3-----3-----|-2------------3----|-3----3----3---------3-----3-----|
F#|-2-------0----2----|-2----2----2---------0-----2-----|-2-------0----2----|-2----2----2---------0-----2-----|
C#|-2-------0----0----|-0----0----0---------0-----0-----|-2-------0----0----|-0----0----0---------0-----0-----|
G#|-0-----------------|---------------------X-----X-----|-0-----------------|---------------------X-----X-----|
D#|-------------------|----------------0----3-----2-----|-------------------|----------------0----3-----2-----|

D#|--------------2----|-2-------|-2----2--------------------2-----|-2-------|-2----2--------------------2-----|
A#|-2------------3----|-3-------|-3----3----3----3----3-----3-----|-3-------|-3----3----3----3----3-----3-----|
F#|-2-------0----2----|-2-------|-2----2----2----0----0-----2-----|-2-------|-2----2----2----0----0-----2-----|
C#|-2-------0----0----|-0-------|-0---------0----0----0-----0-----|-0-------|-0----0----0----0----0-----0-----|
G#|-0-----------------|---------|----------------X----------------|---------|----------------X----------------|
D#|-------------------|---------|----------------3----3-----------|---------|----------------3----3-----------|

D#|-2---------------2-----2-----|------------------------2----|-2----2----2---------3-----2-----|
A#|-3----3-----3----3-----3-----|-2-----2-----2----------3----|-3----3----3---------3-----3-----|
F#|-2----0-----0----2-----2-----|-2-----2-----2-----0----2----|-2----2----2---------0-----2-----|
C#|-0----0-----0----0-----0-----|-2-----2-----2-----0----0----|-0----0----0---------0-----0-----|
G#|------X-----X----------------|-0-----0-----0---------------|---------------------X-----X-----|
D#|------3-----3----------------|-----------------------------|----------------0----3-----2-----|

D#|------------------------2----|-2----2----2---------3-----2-----|------------------------2----|
A#|-2-----2-----2----------3----|-3----3----3---------3-----3-----|-2-----2-----2----------3----|
F#|-2-----2-----2-----0----2----|-2----2----2---------0-----2-----|-2-----2-----2-----0----2----|
C#|-2-----2-----2-----0----0----|-0----0----0---------0-----0-----|-2-----2-----2-----0----0----|
G#|-0-----0-----0---------------|---------------------X-----X-----|-0-----0-----0---------------|
D#|-----------------------------|----------------0----3-----2-----|-----------------------------|

D#|-2----2----2---------3-----2-----|------------------------2----|-2----2----2---------3-----2-----|
A#|-3----3----3---------3-----3-----|-2-----2-----2----------3----|-3----3----3---------3-----3-----|
F#|-2----2----2---------0-----2-----|-2-----2-----2-----0----2----|-2----2----2---------0-----2-----|
C#|-0----0----0---------0-----0-----|-2-----2-----2-----0----0----|-0----0----0---------0-----0-----|
G#|---------------------X-----X-----|-0-----0-----0---------------|---------------------X-----X-----|
D#|----------------0----3-----2-----|-----------------------------|----------------0----3-----2-----|

D#|------------------------2----|-2----2----2---------3-----2-----|------------------------2----|
A#|-2-----2-----2----------3----|-3----3----3---------3-----3-----|-2-----2-----2----------3----|
F#|-2-----2-----2-----0----2----|-2----2----2---------0-----2-----|-2-----2-----2-----0----2----|
C#|-2-----2-----2-----0----0----|-0----0----0---------0-----0-----|-2-----2-----2-----0----0----|
G#|-0-----0-----0---------------|---------------------X-----X-----|-0-----0-----0---------------|
D#|-----------------------------|----------------0----3-----2-----|-----------------------------|

D#|-2----2----2---------3-----2-----|---------|---------|------------------------2----|
A#|-3----3----3---------3-----3-----|---------|---------|-2-----2-----2----------3----|
F#|-2----2----2---------0-----2-----|-%-------|-%-------|-2-----2-----2-----0----2----|
C#|-0----0----0---------0-----0-----|-%-------|-%-------|-2-----2-----2-----0----0----|
G#|---------------------X-----X-----|---------|---------|-0-----0-----0---------------|
D#|----------------0----3-----2-----|---------|---------|-----------------------------|

D#|--------3-----2-----|------------------------2----|-2----2----2---------3-----2-----|
A#|--------3-----3-----|-2-----2-----2----------3----|-3----3----3---------3-----3-----|
F#|-%------0-----2-----|-2-----2-----2-----0----2----|-2----2----2---------0-----2-----|
C#|-%------0-----0-----|-2-----2-----2-----0----0----|-0----0----0---------0-----0-----|
G#|--------X-----------|-0-----0-----0---------------|---------------------X-----X-----|
D#|--------3-----------|-----------------------------|----------------0----3-----2-----|

D#|------------------------2----|-2----2----2---------3-----2-----|------------------------2----|
A#|-2-----2-----2----------3----|-3----3----3---------3-----3-----|-2-----2-----2----------3----|
F#|-2-----2-----2-----0----2----|-2----2----2---------0-----2-----|-2-----2-----2-----0----2----|
C#|-2-----2-----2-----0----0----|-0----0----0---------0-----0-----|-2-----2-----2-----0----0----|
G#|-0-----0-----0---------------|---------------------X-----X-----|-0-----0-----0---------------|
D#|-----------------------------|----------------0----3-----2-----|-----------------------------|

D#|-2----2----2---------3-----2-----|---------|-2-------|-------2---------2----2----------|
A#|-3----3----3---------3-----3-----|---------|-3-------|-------3---------3----3----3-----|
F#|-2----2----2---------0-----2-----|-%-------|-2-------|-%-----2---------2----2----0-----|
C#|-0----0----0---------0-----0-----|-%-------|-0-------|-%-----0----0----0----0----0-----|
G#|---------------------X-----X-----|---------|---------|---------------------------X-----|
D#|----------------0----3-----2-----|---------|---------|---------------------------3-----|

D#|-----------------------------|---------|---------|---------|-------2-------|---------|
A#|-3---------------3----3------|-3-------|---------|---------|-------2-------|---------|
F#|-0--------2------------------|---------|-2-------|-2-------|-2-----2-------|-2-------|
C#|-0-----0------0--------------|---------|-2-------|-2-------|-2-----2-------|-2-------|
G#|-----------------------------|---------|-0-------|-0-------|-0-------------|-0-------|
D#|-3---------------------------|---------|---------|---------|---------------|---------|
ACDC - Highway To Hell (3)
ACDC - Highway To Hell (3).gp4