ACDC - Highway To Hell (solo)

AC-DC



Title: Highway To Hell
Album: Highway To Hell
Artist: ACDC
Author: Angus Young

Track 1: Angus Young
E|------5----5---------5----5---------5----|-5---------5----5---------5----5---------|
B|------5----5---------5----5---------5----|-5---------5----5---------5----5----7----|
G|-7--------------7--------------7---------|------7--------------7--------------7----|
D|-----------------------------------------|-----------------------------------------|
A|-----------------------------------------|-----------------------------------------|
E|-----------------------------------------|-----------------------------------------|

E|----------------------------|-------------------------------------|-----------------5-------------------|
B|-7--------------------------|-------------------------------------|----------------------5----5---------|
G|-7------5---------7----5----|-5-----------------------------------|-2-----4----4--------------4----4----|
D|-------------7--------------|------7----4-----4----2--------------|-------------------------------------|
A|----------------------------|---------------------------2----0----|-------------------------------------|
E|----------------------------|-------------------------------------|-------------------------------------|

E|-----------------5---------------|----------------------------5----|----------------------------|
B|-----------------5---------5-----|-5-------------------------------|-5--------------------------|
G|-2--------------------%----5-----|-5-------------------------------|------5---------11---12-----|
D|-------4--------------%----------|-------7-----5---------7---------|-----------7----------------|
A|------------0--------------------|------------------0--------------|----------------------------|
E|---------------------------------|---------------------------------|----------------------------|

E|--------------------|------14---14---12---------------|--------------------|------12---12----12---------12---|
B|--------------------|---------------------13----------|--------------------|------13---13----13--------------|
G|-12----%-----%------|-%------------------------14-----|-14----12----%------|-%---------------------14--------|
D|-------%-----%------|-%-------------------------------|-------------%------|-%-------------------------------|
A|--------------------|---------------------------------|--------------------|---------------------------------|
E|--------------------|---------------------------------|--------------------|---------------------------------|

E|------12---12-----------|----------------------15-------------|------------------------|
B|------------------------|------15---15----15--------15---15---|-15-----15--------------|
G|-14---------------%-----|-%-----------------------------------|--------------%---------|
D|------------------%-----|-%-----------------------------------|--------------%----X----|
A|------------------------|-------------------------------------|-------------------X----|
E|------------------------|-------------------------------------|-------------------X----|

E|-----------------------------|-------12---------------|--------------------|-------12----12--------------|
B|-----------------------------|-------13-----13--------|--------------------|-------13----13----13--------|
G|-------%----0----------------|-%-----------------14---|-14----%-----%------|-%----------------------14---|
D|-X-----%---------X-----X-----|-%----------------------|-------%-----%------|-%---------------------------|
A|-X---------------X-----X-----|------------------------|--------------------|-----------------------------|
E|-X---------------X-----X-----|------------------------|--------------------|-----------------------------|

E|---------------------------------|------------------------|-12---12--------12---12---------------------|
B|-------17----17------------------|------------------------|----------------13---13---13----------------|
G|-14---------------%----17---17---|-14----17---%----%------|-----------%-------------------14---%-------|
D|------------------%--------------|------------%----%------|-----------%------------------------%---16--|
A|---------------------------------|------------------------|--------------------------------------------|
E|---------------------------------|------------------------|--------------------------------------------|

E|-----------------------------|---------|
B|------------------------20---|-20------|
G|-14----17----%-----%---------|---------|
D|-------------%-----%---------|---------|
A|-----------------------------|---------|
E|-----------------------------|---------|
ACDC - Highway To Hell (solo)
ACDC - Highway To Hell (solo).gp3