ACDC - Jailbreak

AC-DC



Title: Jailbreak
Album: 
Artist: 
Author: AC / DC

Track 1: Guitarra 1
E|---------|---------|---------|---------|---------|---------|---------|---------|---------|
B|---------|---------|---------|---------|---------|---------|---------|---------|---------|
G|-%-------|-%-------|-%-------|-%-------|-%-------|-%-------|-%-------|-%-------|-%-------|
D|-%-------|-%-------|-%-------|-%-------|-%-------|-%-------|-%-------|-%-------|-%-------|
A|---------|---------|---------|---------|---------|---------|---------|---------|---------|
E|---------|---------|---------|---------|---------|---------|---------|---------|---------|

E|---------|---------|------------------------|-----------------------------|-----------------------------|
B|---------|---------|------------------------|-----------------------------|-----------------------------|
G|-%-------|-%-------|-2------%-----%---------|-----------------------------|-----------------------------|
D|-%-------|-%-------|-2------%-----%---------|-2----------7-----6----------|-2----------7-----6----------|
A|---------|---------|-0----------------------|-2----------5-----4----------|-2----------5-----4----------|
E|---------|---------|-------------------0----|-------0---------------0-----|-------0---------------0-----|

E|-----------------------------|-----------------------------|-----------------------------|
B|-----------------------------|-----------------------------|-----------------------------|
G|-----------------------------|-----------------------------|-----------------------------|
D|-2----------7-----6----------|-2----------7-----6----------|-2----------7-----6----------|
A|-2----------5-----4----------|-2----------5-----4----------|-2----------5-----4----------|
E|-------0---------------0-----|-------0---------------0-----|-------0---------------0-----|

E|-----------------------------|-----------------------------|-----------------------------|
B|-----------------------------|-----------------------------|-----------------------------|
G|-----------------------------|-----------------------------|-----------------------------|
D|-2----------7-----6----------|-2----------7-----6----------|-2----------7-----6----------|
A|-2----------5-----4----------|-2----------5-----4----------|-2----------5-----4----------|
E|-------0---------------0-----|-------0---------------0-----|-------0---------------0-----|

E|-----------------------------|-----------------------------|-----------------------------|
B|-----------------------------|-----------------------------|-----------------------------|
G|-----------------------------|-----------------------------|-----------------------------|
D|-2----------7-----6----------|-2----------7-----6----------|-2----------7-----6----------|
A|-2----------5-----4----------|-2----------5-----4----------|-2----------5-----4----------|
E|-------0---------------0-----|-------0---------------0-----|-------0---------------0-----|

E|-----------------------------|-----------------------------|-----------------------------|
B|-----------------------------|-----------------------------|-----------------------------|
G|-----------------------------|-----------------------------|-----------------------------|
D|-2----------7-----6----------|-2----------7-----6----------|-2----------7-----6----------|
A|-2----------5-----4----------|-2----------5-----4----------|-2----------5-----4----------|
E|-------0---------------0-----|-------0---------------0-----|-------0---------------0-----|

E|-----------------------------|-----------------------------|---------------------------------|
B|-----------------------------|-----------------------------|-------3----3----3----3----------|
G|-----------------------------|-----------------------------|-2-----2----2----2----2-----2----|
D|-2----------7-----6----------|-2----------7-----6----------|-2--------------------------2----|
A|-2----------5-----4----------|-2----------5-----4----------|-0--------------------------0----|
E|-------0---------------0-----|-------0---------------0-----|---------------------------------|

E|---------------------------------|-------4----4----4----4----------|---------------------------------|
B|------3----3----3----3-----------|-------5----5----5----5----------|------3----3----3----3-----------|
G|-2----2----2----2----2-----4-----|-4-----4----4----4----4-----4----|-4----2----2----2----2-----------|
D|-2-------------------------4-----|-4--------------------------4----|-4-------------------------------|
A|-0-------------------------2-----|-2--------------------------2----|-2-------------------------------|
E|---------------------------------|---------------------------------|---------------------------0-----|

E|---------------------------------|---------------------------------|---------------------------------|
B|---------------------------------|---------------------------------|---------------------------------|
G|---------------------------------|---------------------------------|---------------------------------|
D|---------------------------------|---------------------------------|---------------------------------|
A|----------------5-----4----------|----------------5-----4----------|----------------5-----4----------|
E|-0----3----0---------------0-----|-0----3----0---------------0-----|-0----3----0---------------0-----|

E|---------------------------------|---------------------------------|---------------------------------|
B|---------------------------------|---------------------------------|---------------------------------|
G|---------------------------------|---------------------------------|---------------------------------|
D|---------------------------------|---------------------------------|---------------------------------|
A|----------------5-----4----------|----------------5-----4----------|----------------5-----4----------|
E|-0----3----0---------------0-----|-0----3----0---------------0-----|-0----3----0---------------0-----|

E|---------------------------------|---------------------------------|---------------------------------|
B|---------------------------------|---------------------------------|---------------------------------|
G|---------------------------------|---------------------------------|---------------------------------|
D|---------------------------------|---------------------------------|---------------------------------|
A|----------------5-----4----------|----------------5-----4----------|----------------5-----4----------|
E|-0----3----0---------------0-----|-0----3----0---------------0-----|-0----3----0---------------0-----|

E|---------------------------------|---------------------------------|---------------------------------|
B|---------------------------------|---------------------------------|---------------------------------|
G|---------------------------------|---------------------------------|---------------------------------|
D|---------------------------------|---------------------------------|---------------------------------|
A|----------------5-----4----------|----------------5-----4----------|----------------5-----4----------|
E|-0----3----0---------------0-----|-0----3----0---------------0-----|-0----3----0---------------0-----|

E|---------------------------------|---------------------------------|---------------------------------|
B|---------------------------------|---------------------------------|---------------------------------|
G|---------------------------------|---------------------------------|---------------------------------|
D|---------------------------------|---------------------------------|---------------------------------|
A|----------------5-----4----------|----------------5-----4----------|----------------5-----4----------|
E|-0----3----0---------------0-----|-0----3----0---------------0-----|-0----3----0---------------0-----|

E|-----------------------------|-----------------------------|-----------------------------|
B|-----------------------------|-----------------------------|-----------------------------|
G|-----------------------------|-----------------------------|-----------------------------|
D|-2----------7-----6----------|-2----------7-----6----------|-2----------7-----6----------|
A|-2----------5-----4----------|-2----------5-----4----------|-2----------5-----4----------|
E|-------0---------------0-----|-------0---------------0-----|-------0---------------0-----|

E|-----------------------------|-----------------------------|-----------------------------|
B|-----------------------------|-----------------------------|-----------------------------|
G|-----------------------------|-----------------------------|-----------------------------|
D|-2----------7-----6----------|-2----------7-----6----------|-2----------7-----6----------|
A|-2----------5-----4----------|-2----------5-----4----------|-2----------5-----4----------|
E|-------0---------------0-----|-------0---------------0-----|-------0---------------0-----|

E|-----------------------------|-----------------------------|-----------------------------|
B|-----------------------------|-----------------------------|-----------------------------|
G|-----------------------------|-----------------------------|-----------------------------|
D|-2----------7-----6----------|-2----------7-----6----------|-2----------7-----6----------|
A|-2----------5-----4----------|-2----------5-----4----------|-2----------5-----4----------|
E|-------0---------------0-----|-------0---------------0-----|-------0---------------0-----|

E|-----------------------------|-----------------------------|-----------------------------|
B|-----------------------------|-----------------------------|-----------------------------|
G|-----------------------------|-----------------------------|-----------------------------|
D|-2----------7-----6----------|-2----------7-----6----------|-2----------7-----6----------|
A|-2----------5-----4----------|-2----------5-----4----------|-2----------5-----4----------|
E|-------0---------------0-----|-------0---------------0-----|-------0---------------0-----|

E|-----------------------------|---------------------------------|---------------------------------|
B|-----------------------------|-------3----3----3----3----------|------3----3----3----3-----------|
G|-----------------------------|-2-----2----2----2----2-----2----|-2----2----2----2----2-----4-----|
D|-2----------7-----6----------|-2--------------------------2----|-2-------------------------4-----|
A|-2----------5-----4----------|-0--------------------------0----|-0-------------------------2-----|
E|-------0---------------0-----|---------------------------------|---------------------------------|

E|-------4----4----4----4----------|---------------------------------|---------------------------------|
B|-------5----5----5----5----------|------3----3----3----3-----------|---------------------------------|
G|-4-----4----4----4----4-----4----|-4----2----2----2----2-----------|---------------------------------|
D|-4--------------------------4----|-4-------------------------------|---------------------------------|
A|-2--------------------------2----|-2-------------------------------|----------------5-----4----------|
E|---------------------------------|---------------------------0-----|-0----3----0---------------0-----|

E|---------------------------------|---------------------------------|---------------------------------|
B|---------------------------------|---------------------------------|---------------------------------|
G|---------------------------------|---------------------------------|---------------------------------|
D|---------------------------------|---------------------------------|---------------------------------|
A|----------------5-----4----------|----------------5-----4----------|----------------5-----4----------|
E|-0----3----0---------------0-----|-0----3----0---------------0-----|-0----3----0---------------0-----|

E|---------------------------------|---------------------------------|---------------------------------|
B|---------------------------------|---------------------------------|---------------------------------|
G|---------------------------------|---------------------------------|---------------------------------|
D|---------------------------------|---------------------------------|---------------------------------|
A|----------------5-----4----------|----------------5-----4----------|----------------5-----4----------|
E|-0----3----0---------------0-----|-0----3----0---------------0-----|-0----3----0---------------0-----|

E|---------------------------------|-15-----15--12------12------------|----------------------------17---17---15----|
B|---------------------------------|----------------15------15----15--|-15--15--13---------------------------------|
G|---------------------------------|----------------------------------|--------------------------------------------|
D|---------------------------------|----------------------------------|--------------------------------------------|
A|----------------5-----4----------|----------------------------------|-------------0----0----2--------------------|
E|-0----3----0---------------0-----|----------------------------------|--------------------------------------------|

E|-15-------15------------------17---------|---------------------------------|---------------------------------|
B|-----17--------17---17---17--------17----|---------------------------------|---------------------------------|
G|-----------------------------------------|---------------------------------|---------------------------------|
D|-----------------------------------------|---------------------------------|---------------------------------|
A|-----------------------------------------|----------------5-----4----------|----------------5-----4----------|
E|-----------------------------------------|-0----3----0---------------0-----|-0----3----0---------------0-----|

E|---------------------------------|---------------------------------|---------------------------------|
B|---------------------------------|---------------------------------|---------------------------------|
G|---------------------------------|---------------------------------|---------------------------------|
D|---------------------------------|---------------------------------|---------------------------------|
A|----------------5-----4----------|----------------5-----4----------|----------------5-----4----------|
E|-0----3----0---------------0-----|-0----3----0---------------0-----|-0----3----0---------------0-----|

E|---------------------------------|---------------------------------|---------------------------------|
B|---------------------------------|---------------------------------|---------------------------------|
G|---------------------------------|---------------------------------|---------------------------------|
D|---------------------------------|---------------------------------|---------------------------------|
A|----------------5-----4----------|----------------5-----4----------|----------------5-----4----------|
E|-0----3----0---------------0-----|-0----3----0---------------0-----|-0----3----0---------------0-----|

E|---------------------------------|---------------------------------|---------------------------------|
B|---------------------------------|---------------------------------|---------------------------------|
G|---------------------------------|---------------------------------|---------------------------------|
D|---------------------------------|---------------------------------|---------------------------------|
A|----------------5-----4----------|----------------5-----4----------|----------------5-----4----------|
E|-0----3----0---------------0-----|-0----3----0---------------0-----|-0----3----0---------------0-----|

E|---------------------------------|---------------------------------|---------------------------------|
B|---------------------------------|---------------------------------|---------------------------------|
G|---------------------------------|---------------------------------|---------------------------------|
D|---------------------------------|---------------------------------|---------------------------------|
A|----------------5-----4----------|----------------5-----4----------|----------------5-----4----------|
E|-0----3----0---------------0-----|-0----3----0---------------0-----|-0----3----0---------------0-----|

E|---------------------------------|---------------------------------|---------------------------------|
B|---------------------------------|---------------------------------|---------------------------------|
G|---------------------------------|---------------------------------|---------------------------------|
D|---------------------------------|---------------------------------|---------------------------------|
A|----------------5-----4----------|----------------5-----4----------|----------------5-----4----------|
E|-0----3----0---------------0-----|-0----3----0---------------0-----|-0----3----0---------------0-----|

E|---------------------------------|---------------------------------|---------------------------------|
B|---------------------------------|---------------------------------|---------------------------------|
G|---------------------------------|---------------------------------|---------------------------------|
D|---------------------------------|---------------------------------|---------------------------------|
A|----------------5-----4----------|----------------5-----4----------|----------------5-----4----------|
E|-0----3----0---------------0-----|-0----3----0---------------0-----|-0----3----0---------------0-----|

E|---------------------------------|---------------------------------|---------------------------------|
B|---------------------------------|---------------------------------|---------------------------------|
G|---------------------------------|---------------------------------|---------------------------------|
D|---------------------------------|---------------------------------|---------------------------------|
A|----------------5-----4----------|----------------5-----4----------|----------------5-----4----------|
E|-0----3----0---------------0-----|-0----3----0---------------0-----|-0----3----0---------------0-----|

E|---------------------------------|-------------------------------------------------17--|
B|---------------------------------|-15---15---12-------12-------------------------------|
G|---------------------------------|----------------14-------14--12------14------12------|
D|---------------------------------|---------------------------------14------14----------|
A|----------------5-----4----------|-----------------------------------------------------|
E|-0----3----0---------------0-----|-----------------------------------------------------|

E|-17--17---15--------------------17--19--15-----------|
B|---------------17---17--15--17--------------17-------|
G|------------------------------------------------%----|
D|------------------------------------------------%----|
A|-----------------------------------------------------|
E|-----------------------------------------------------|
ACDC - Jailbreak
ACDC - Jailbreak.gp3