ACDC - Let Me Put My Love Into You

AC-DC



Title: Let Me Put My Love Into You
Album: 
Artist: AC/DC
Author: 

Track 1: Guitar 1
E|----------------------------|----------------------------|----------------------------|
B|----------------------------|----------------------------|----------------------------|
G|-%------%-------------------|----------------------------|----------------------------|
D|-%------%----5----4----5----|-5------5----5----4----5----|-5------5----5----4----5----|
A|-------------7----5----7----|-7------7----7----5----7----|-7------7----7----5----7----|
E|----------------------------|----------------------------|----------------------------|

E|-------------------------|----------------------------|----------------------------|
B|-------------------------|----------------------------|----------------------------|
G|--------------------2----|-2------2-------------------|----------------------------|
D|-5------4----4------2----|-2------2----5----4----5----|-5------5----5----4----5----|
A|-7------5----5------0----|-0------0----7----5----7----|-7------7----7----5----7----|
E|-------------------------|----------------------------|----------------------------|

E|----------------------------|-------------------------|----------------------------|
B|----------------------------|-------------------------|----------------------------|
G|----------------------------|--------------------2----|-2------2-------------------|
D|-5------5----5----4----5----|-5------4----4------2----|-2------2----5----4----5----|
A|-7------7----7----5----7----|-7------5----5------0----|-0------0----7----5----7----|
E|----------------------------|-------------------------|----------------------------|

E|---------------------------------|---------------------------------|---------------------------------|
B|---------------------------------|---------------------------------|---------------------------------|
G|---------------------------------|---------------------------------|----------------------------2----|
D|-5-----5-----5----5----4----5----|-5-----5-----5----5----4----5----|-5----------4----4----------2----|
A|-7-----7-----7----7----5----7----|-7-----7-----7----7----5----7----|-7----------5----5----------0----|
E|-------0-----0-------------------|-------0-----0-------------------|-------0---------------0---------|

E|----------------------------|---------------------------------|---------------------------------|
B|----------------------------|---------------------------------|---------------------------------|
G|-2------2-------------------|---------------------------------|---------------------------------|
D|-2------2----5----4----5----|-5-----5-----5----5----4----5----|-5-----5-----5----5----4----5----|
A|-0------0----7----5----7----|-7-----7-----7----7----5----7----|-7-----7-----7----7----5----7----|
E|----------------------------|-------0-----0-------------------|-------0-----0-------------------|

E|---------------------------------|----------------------------|----------------------------|
B|---------------------------------|----------------------------|----------------------------|
G|----------------------------2----|-2------2-------------------|----------------------------|
D|-5----------4----4----------2----|-2------2----5----4----5----|-5------5----5----4----5----|
A|-7----------5----5----------0----|-0------0----7----5----7----|-7------7----7----5----7----|
E|-------0---------------0---------|----------------------------|----------------------------|

E|----------------------------|-------------------------|----------------------------|
B|----------------------------|-------------------------|----------------------------|
G|----------------------------|--------------------2----|-2------2-------------------|
D|-5------5----5----4----5----|-5------4----4------2----|-2------2----5----4----5----|
A|-7------7----7----5----7----|-7------5----5------0----|-0------0----7----5----7----|
E|----------------------------|-------------------------|----------------------------|

E|----------------------------|----------------------------|-------------------------|
B|----------------------------|----------------------------|-------------------------|
G|----------------------------|----------------------------|--------------------2----|
D|-5------5----5----4----5----|-5------5----5----4----5----|-5------4----4------2----|
A|-7------7----7----5----7----|-7------7----7----5----7----|-7------5----5------0----|
E|----------------------------|----------------------------|-------------------------|

E|----------------------------|---------------------------------|---------------------------------|
B|----------------------------|---------------------------------|---------------------------------|
G|-2------2-------------------|---------------------------------|---------------------------------|
D|-2------2----5----4----5----|-5-----5-----5----5----4----5----|-5-----5-----5----5----4----5----|
A|-0------0----7----5----7----|-7-----7-----7----7----5----7----|-7-----7-----7----7----5----7----|
E|----------------------------|-------0-----0-------------------|-------0-----0-------------------|

E|---------------------------------|----------------------------|---------------------------------|
B|---------------------------------|----------------------------|---------------------------------|
G|----------------------------2----|-2------2-------------------|---------------------------------|
D|-5----------4----4----------2----|-2------2----5----4----5----|-5-----5-----5----5----4----5----|
A|-7----------5----5----------0----|-0------0----7----5----7----|-7-----7-----7----7----5----7----|
E|-------0---------------0---------|----------------------------|-------0-----0-------------------|

E|---------------------------------|---------------------------------|---------|-------------------------------------|
B|---------------------------------|---------------------------------|---------|-------------------------------------|
G|---------------------------------|----------------------------2----|-%-------|--------------------------%----%-----|
D|-5-----5-----5----5----4----5----|-5----------4----4----------2----|-%-------|--------------------------%----%-----|
A|-7-----7-----7----7----5----7----|-7----------5----5----------0----|---------|-2--------------2--------------------|
E|-------0-----0-------------------|-------0---------------0---------|---------|-0----0----0----0----0---------------|

E|----------------------------|-------------------------------------|-----------------------------------------|
B|----------------------------|-------------------------------------|-----------------------------------------|
G|---------------------%------|--------------------------%----%-----|-2----2---------2---------2----2----2----|
D|-2----2----2----2----%------|--------------------------%----%-----|-2----2---------2----2----2----2----2----|
A|-0----0----0----0-----------|-2--------------2--------------------|-0----0---------0----0----0----0----0----|
E|----------------------------|-0----0----0----0----0---------------|-----------3-----------------------------|

E|-----------------------------|-----------------------------|-----------------------------|
B|-3---------------------------|-----------------------------|-3---------------------------|
G|-2-----------2---------------|-----------------------------|-2-----------2---------------|
D|-0------2----2----------2----|-2-----2-----2-----2---------|-0------2----2----------2----|
A|-0------0----0-----2----2----|-2-----2-----2-----2---------|-0------0----0-----2----2----|
E|-------------------0----0----|-0-----0-----0-----0----0----|-------------------0----0----|

E|-------------------------|-----------------------------|---------------------------------|
B|-------------------------|-3---------------------------|---------------------------------|
G|-------------------------|-2-----------2---------------|---------------------------------|
D|-2-----2-----2-----2-----|-0------2----2----------2----|-2-----2-----2----2----2----2----|
A|-2-----2-----2-----2-----|-0------0----0-----2----2----|-2-----2-----2----2----2----2----|
E|-0-----0-----0-----0-----|-------------------0----0----|-0-----0-----0----0----0----0----|

E|-2-------------|----------------------------|
B|-3------2------|-------------8----7----8----|
G|-2------2------|-0------0----9----7----9----|
D|-0------2------|-2------2----5----4----5----|
A|-0------0------|-2------2----7----5----7----|
E|---------------|-0------0----0----0----0----|
ACDC - Let Me Put My Love Into You
ACDC - Let Me Put My Love Into You.gp3