ACDC - Let There Be Rock

AC-DC



Title: Let There Be Rock
Album: 
Artist: 
Author: AC/DC

Track 1: Guitar 1
E|-----------|-----------------------------------------|-----------------------------------------|
B|-----------|-----------------------------------------|-----------------------------------------|
G|-%----0----|-0----------------------------------0----|-0----------------------------------0----|
D|-%----0----|-0----2-----------------------------0----|-0----2-----------------------------0----|
A|-----------|------2----------------------------------|------2----------------------------------|
E|------3----|-3----0----0----0----0----0----0----3----|-3----0----0----0----0----0----0----3----|

E|-----------------------------------------|-----------------------------------------|
B|-----------------------------------------|-----------------------------------------|
G|-0--------------2----2--------------0----|-0----------------------------------0----|
D|-0----2----2----2----2----2----2----0----|-0----2-----------------------------0----|
A|------2----2----0----0----2----2---------|------2----------------------------------|
E|-3----0----0--------------0----0----3----|-3----0----0----0----0----0----0----3----|

E|-----------------------------------------|-----------------------------------------|
B|-----------------------------------------|-----------------------------------------|
G|-0----------------------------------0----|-0----------------------------------0----|
D|-0----2-----------------------------0----|-0----2-----------------------------0----|
A|------2----------------------------------|------2----------------------------------|
E|-3----0----0----0----0----0----0----3----|-3----0----0----0----0----0----0----3----|

E|-----------------------------------------|-----------------------------------------|
B|-----------------------------------------|-----------------------------------------|
G|-0--------------2----2--------------0----|-0----------------------------------0----|
D|-0----2----2----2----2----2----2----0----|-0----2-----------------------------0----|
A|------2----2----0----0----2----2---------|------2----------------------------------|
E|-3----0----0--------------0----0----3----|-3----0----0----0----0----0----0----3----|

E|---------|------------------------|---------------------------------|---------------------------------|
B|---------|------------------------|---------------------------------|---------------------------------|
G|-%-------|-%------%-----%----2----|-2----2----X-----X-----2----2----|-2----2----X-----X-----2----2----|
D|-%-------|-%------%-----%----2----|-2----2----X-----X-----2----2----|-2----2----X-----X-----2----2----|
A|---------|-------------------0----|-0----0----X-----X-----0----0----|-0----0----X-----X-----0----0----|
E|---------|------------------------|---------------------------------|---------------------------------|

E|---------------------------------|---------------------------------|---------------------------------|
B|---------------------------------|---------------------------------|---------------------------------|
G|-2----2----X-----X-----2----2----|-2----2----X-----X-----2----2----|-2----2----X-----X-----2----2----|
D|-2----2----X-----X-----2----2----|-2----2----X-----X-----2----2----|-2----2----X-----X-----2----2----|
A|-0----0----X-----X-----0----0----|-0----0----X-----X-----0----0----|-0----0----X-----X-----0----0----|
E|---------------------------------|---------------------------------|---------------------------------|

E|-------------------------------------|---------------------------------|-------------------------------------|
B|-------------------------------------|---------------------------------|-------------------------------------|
G|-2----2----X-----X----X----2----2----|-2----2----X-----X-----2----2----|-2----2----X-----X----X----2----2----|
D|-2----2----X-----X----X----2----2----|-2----2----X-----X-----2----2----|-2----2----X-----X----X----2----2----|
A|-0----0----X-----X----X----0----0----|-0----0----X-----X-----0----0----|-0----0----X-----X----X----0----0----|
E|-------------------------------------|---------------------------------|-------------------------------------|

E|---------------------------------|-------------------------------------|---------------------------------|
B|---------------------------------|-------------------------------------|---------------------------------|
G|-2----2----X-----X-----2----2----|-2----2----X-----X----X----2----2----|-2----2----X-----X-----2----2----|
D|-2----2----X-----X-----2----2----|-2----2----X-----X----X----2----2----|-2----2----X-----X-----2----2----|
A|-0----0----X-----X-----0----0----|-0----0----X-----X----X----0----0----|-0----0----X-----X-----0----0----|
E|---------------------------------|-------------------------------------|---------------------------------|

E|-------------------------------------|---------------------------------|-------------------------------------|
B|-------------------------------------|---------------------------------|-------------------------------------|
G|-2----2----X-----X----X----2----2----|-2----2----X-----X-----2----2----|-2----2----X-----X----X----2----2----|
D|-2----2----X-----X----X----2----2----|-2----2----X-----X-----2----2----|-2----2----X-----X----X----2----2----|
A|-0----0----X-----X----X----0----0----|-0----0----X-----X-----0----0----|-0----0----X-----X----X----0----0----|
E|-------------------------------------|---------------------------------|-------------------------------------|

E|---------------------------------|-------------------------------------|---------------------------------|
B|---------------------------------|-------------------------------------|---------------------------------|
G|-2----2----X-----X-----2----2----|-2----2----X-----X----X----2----2----|-2----4----X-----X-----4----4----|
D|-2----2----X-----X-----2----2----|-2----2----X-----X----X----2----2----|-2----4----X-----X-----4----4----|
A|-0----0----X-----X-----0----0----|-0----0----X-----X----X----0----0----|-0----2----X-----X-----2----2----|
E|---------------------------------|-------------------------------------|---------------------------------|

E|-------------------------------------|---------------------------------|-------------------------------------|
B|-------------------------------------|---------------------------------|-------------------------------------|
G|-4----4----X-----X----X----4----4----|-4----4----X-----X-----4----4----|-4----4----X-----X----X----4----4----|
D|-4----4----X-----X----X----4----4----|-4----4----X-----X-----4----4----|-4----4----X-----X----X----4----4----|
A|-2----2----X-----X----X----2----2----|-2----2----X-----X-----2----2----|-2----2----X-----X----X----2----2----|
E|-------------------------------------|---------------------------------|-------------------------------------|

E|---------------------------------|-------------------------------------|---------------------|
B|---------------------------------|-------------------------------------|---------------------|
G|-4----2----X-----X-----2----2----|-2----2----X-----X----X----2----2----|-2------2------2-----|
D|-4----2----X-----X-----2----2----|-2----2----X-----X----X----2----2----|-2------2------2-----|
A|-2----0----X-----X-----0----0----|-0----0----X-----X----X----0----0----|-0------0------0-----|
E|---------------------------------|-------------------------------------|---------------------|

E|-------------------------|-----------------------------|---------|-----------------------------------------|
B|-------------------------|-----------------------------|---------|-----------------------------------------|
G|-2----2------2-----2-----|-2-----%-----%----%-----0----|-%-------|-%----------------------------------0----|
D|-2----2------2-----2-----|-2-----%-----%----%-----0----|-%-------|-%----2-----------------------------0----|
A|-0----0------0-----0-----|-0---------------------------|---------|------2----------------------------------|
E|-------------------------|------------------------3----|---------|------0----0----0----0----0----0----3----|

E|-----------------------------------------|-----------------------------------------|
B|-----------------------------------------|-----------------------------------------|
G|-0----------------------------------0----|-0--------------2----2--------------0----|
D|-0----2-----------------------------0----|-0----2----2----2----2----2----2----0----|
A|------2----------------------------------|------2----2----0----0----2----2---------|
E|-3----0----0----0----0----0----0----3----|-3----0----0--------------0----0----3----|

E|-----------------------------------------|-----------------------------------------|
B|-----------------------------------------|-----------------------------------------|
G|-0----------------------------------0----|-0----------------------------------0----|
D|-0----2-----------------------------0----|-0----2-----------------------------0----|
A|------2----------------------------------|------2----------------------------------|
E|-3----0----0----0----0----0----0----3----|-3----0----0----0----0----0----0----3----|

E|-----------------------------------------|-----------------------------------------|
B|-----------------------------------------|-----------------------------------------|
G|-0----------------------------------0----|-0--------------2----2--------------0----|
D|-0----2-----------------------------0----|-0----2----2----2----2----2----2----0----|
A|------2----------------------------------|------2----2----0----0----2----2---------|
E|-3----0----0----0----0----0----0----3----|-3----0----0--------------0----0----3----|

E|-------------------------------------|---------|---------------------------------|
B|-------------------------------------|---------|---------------------------------|
G|-0-----------------------------------|-%-------|-%----2----X-----X-----2----2----|
D|-0----2------------------------2-----|-%-------|-%----2----X-----X-----2----2----|
A|------2------------------------2-----|---------|------0----X-----X-----0----0----|
E|-3----0----0----0----0----0----0-----|---------|---------------------------------|

E|-------------------------------------|---------------------------------|-------------------------------------|
B|-------------------------------------|---------------------------------|-------------------------------------|
G|-2----2----X-----X----X----2----2----|-2----2----X-----X-----2----2----|-2----2----X-----X----X----2----2----|
D|-2----2----X-----X----X----2----2----|-2----2----X-----X-----2----2----|-2----2----X-----X----X----2----2----|
A|-0----0----X-----X----X----0----0----|-0----0----X-----X-----0----0----|-0----0----X-----X----X----0----0----|
E|-------------------------------------|---------------------------------|-------------------------------------|

E|---------------------------------|-------------------------------------|---------------------------------|
B|---------------------------------|-------------------------------------|---------------------------------|
G|-2----2----X-----X-----2----2----|-2----2----X-----X----X----2----2----|-2----2----X-----X-----2----2----|
D|-2----2----X-----X-----2----2----|-2----2----X-----X----X----2----2----|-2----2----X-----X-----2----2----|
A|-0----0----X-----X-----0----0----|-0----0----X-----X----X----0----0----|-0----0----X-----X-----0----0----|
E|---------------------------------|-------------------------------------|---------------------------------|

E|-------------------------------------|---------------------------------|-------------------------------------|
B|-------------------------------------|---------------------------------|-------------------------------------|
G|-2----2----X-----X----X----2----2----|-2----2----X-----X-----2----2----|-2----2----X-----X----X----2----2----|
D|-2----2----X-----X----X----2----2----|-2----2----X-----X-----2----2----|-2----2----X-----X----X----2----2----|
A|-0----0----X-----X----X----0----0----|-0----0----X-----X-----0----0----|-0----0----X-----X----X----0----0----|
E|-------------------------------------|---------------------------------|-------------------------------------|

E|---------------------------------|-------------------------------------|---------------------------------|
B|---------------------------------|-------------------------------------|---------------------------------|
G|-2----2----X-----X-----2----2----|-2----2----X-----X----X----2----2----|-2----2----X-----X-----2----2----|
D|-2----2----X-----X-----2----2----|-2----2----X-----X----X----2----2----|-2----2----X-----X-----2----2----|
A|-0----0----X-----X-----0----0----|-0----0----X-----X----X----0----0----|-0----0----X-----X-----0----0----|
E|---------------------------------|-------------------------------------|---------------------------------|

E|-------------------------------------|---------------------------------|-------------------------------------|
B|-------------------------------------|---------------------------------|-------------------------------------|
G|-2----2----X-----X----X----2----2----|-2----2----X-----X-----2----2----|-2----2----X-----X----X----2----2----|
D|-2----2----X-----X----X----2----2----|-2----2----X-----X-----2----2----|-2----2----X-----X----X----2----2----|
A|-0----0----X-----X----X----0----0----|-0----0----X-----X-----0----0----|-0----0----X-----X----X----0----0----|
E|-------------------------------------|---------------------------------|-------------------------------------|

E|---------------------------------|-------------------------------------|---------------------------------|
B|---------------------------------|-------------------------------------|---------------------------------|
G|-2----2----X-----X-----2----2----|-2----2----X-----X----X----2----2----|-2----2----X-----X-----2----2----|
D|-2----2----X-----X-----2----2----|-2----2----X-----X----X----2----2----|-2----2----X-----X-----2----2----|
A|-0----0----X-----X-----0----0----|-0----0----X-----X----X----0----0----|-0----0----X-----X-----0----0----|
E|---------------------------------|-------------------------------------|---------------------------------|

E|-------------------------------------|---------------------------------|-------------------------------------|
B|-------------------------------------|---------------------------------|-------------------------------------|
G|-2----2----X-----X----X----2----2----|-2----4----X-----X-----4----4----|-4----4----X-----X----X----4----4----|
D|-2----2----X-----X----X----2----2----|-2----4----X-----X-----4----4----|-4----4----X-----X----X----4----4----|
A|-0----0----X-----X----X----0----0----|-0----2----X-----X-----2----2----|-2----2----X-----X----X----2----2----|
E|-------------------------------------|---------------------------------|-------------------------------------|

E|---------------------------------|-------------------------------------|---------------------------------|
B|---------------------------------|-------------------------------------|---------------------------------|
G|-4----4----X-----X-----4----4----|-4----4----X-----X----X----4----4----|-4----2----X-----X-----2----2----|
D|-4----4----X-----X-----4----4----|-4----4----X-----X----X----4----4----|-4----2----X-----X-----2----2----|
A|-2----2----X-----X-----2----2----|-2----2----X-----X----X----2----2----|-2----0----X-----X-----0----0----|
E|---------------------------------|-------------------------------------|---------------------------------|

E|-------------------------------------|---------------------|-------------------------|
B|-------------------------------------|---------------------|-------------------------|
G|-2----2----X-----X----X----2----2----|-2------2------2-----|-2----2------2-----2-----|
D|-2----2----X-----X----X----2----2----|-2------2------2-----|-2----2------2-----2-----|
A|-0----0----X-----X----X----0----0----|-0------0------0-----|-0----0------0-----0-----|
E|-------------------------------------|---------------------|-------------------------|

E|-----------------------------|-----------------------------------------|-----------------------------------------|
B|-----------------------------|-----------------------------------------|-----------------------------------------|
G|-2-----%-----%----%-----0----|-0----------------------------------0----|-0----------------------------------0----|
D|-2-----%-----%----%-----0----|-0----2-----------------------------0----|-0----2-----------------------------0----|
A|-0---------------------------|------2----------------------------------|------2----------------------------------|
E|------------------------3----|-3----0----0----0----0----0----0----3----|-3----0----0----0----0----0----0----3----|

E|-----------------------------------------|-----------------------------------------|
B|-----------------------------------------|-----------------------------------------|
G|-0--------------2----2--------------0----|-0----------------------------------0----|
D|-0----2----2----2----2----2----2----0----|-0----2-----------------------------0----|
A|------2----2----0----0----2----2---------|------2----------------------------------|
E|-3----0----0--------------0----0----3----|-3----0----0----0----0----0----0----3----|

E|---------|------------------------|-----------------------------|----------------------------|
B|---------|------------------------|-----------------------------|----------------------------|
G|-%-------|-%------%-----%----0----|-0----1-----2-----1-----0----|-0----1----1------1----1----|
D|-%-------|-%------%-----%----0----|-0----2-----2-----2-----0----|-0----2----2------2----2----|
A|---------|------------------------|------2-----0-----2----------|------2----2------2----2----|
E|---------|-------------------3----|-3----0-----------0-----3----|-3----0----0------0----0----|

E|---------|------------------------|-----------------------------|----------------------------|
B|---------|------------------------|-----------------------------|----------------------------|
G|-%-------|-%------%-----%----0----|-0----1-----2-----1-----0----|-0----1----1------1----1----|
D|-%-------|-%------%-----%----0----|-0----2-----2-----2-----0----|-0----2----2------2----2----|
A|---------|------------------------|------2-----0-----2----------|------2----2------2----2----|
E|---------|-------------------3----|-3----0-----------0-----3----|-3----0----0------0----0----|

E|---------|------------------------|-----------------------------|----------------------------|
B|---------|------------------------|-----------------------------|----------------------------|
G|-%-------|-%------%-----%----0----|-0----1-----2-----1-----0----|-0----1----1------1----1----|
D|-%-------|-%------%-----%----0----|-0----2-----2-----2-----0----|-0----2----2------2----2----|
A|---------|------------------------|------2-----0-----2----------|------2----2------2----2----|
E|---------|-------------------3----|-3----0-----------0-----3----|-3----0----0------0----0----|

E|---------|------------------------|-----------------------------|----------------------------|
B|---------|------------------------|-----------------------------|----------------------------|
G|-%-------|-%------%-----%----0----|-0----1-----2-----1-----0----|-0----1----1------1----1----|
D|-%-------|-%------%-----%----0----|-0----2-----2-----2-----0----|-0----2----2------2----2----|
A|---------|------------------------|------2-----0-----2----------|------2----2------2----2----|
E|---------|-------------------3----|-3----0-----------0-----3----|-3----0----0------0----0----|

E|---------------------------------|-------------------------------------|---------------------------------|
B|---------------------------------|-------------------------------------|---------------------------------|
G|-1----2----X-----X-----2----2----|-2----2----X-----X----X----2----2----|-2----2----X-----X-----2----2----|
D|-2----2----X-----X-----2----2----|-2----2----X-----X----X----2----2----|-2----2----X-----X-----2----2----|
A|-2----0----X-----X-----0----0----|-0----0----X-----X----X----0----0----|-0----0----X-----X-----0----0----|
E|-0-------------------------------|-------------------------------------|---------------------------------|

E|-------------------------------------|---------------------------------|-------------------------------------|
B|-------------------------------------|---------------------------------|-------------------------------------|
G|-2----2----X-----X----X----2----2----|-2----2----X-----X-----2----2----|-2----2----X-----X----X----2----2----|
D|-2----2----X-----X----X----2----2----|-2----2----X-----X-----2----2----|-2----2----X-----X----X----2----2----|
A|-0----0----X-----X----X----0----0----|-0----0----X-----X-----0----0----|-0----0----X-----X----X----0----0----|
E|-------------------------------------|---------------------------------|-------------------------------------|

E|---------------------------------|-------------------------------------|---------------------------------|
B|---------------------------------|-------------------------------------|---------------------------------|
G|-2----2----X-----X-----2----2----|-2----2----X-----X----X----2----2----|-2----2----X-----X-----2----2----|
D|-2----2----X-----X-----2----2----|-2----2----X-----X----X----2----2----|-2----2----X-----X-----2----2----|
A|-0----0----X-----X-----0----0----|-0----0----X-----X----X----0----0----|-0----0----X-----X-----0----0----|
E|---------------------------------|-------------------------------------|---------------------------------|

E|-------------------------------------|---------------------------------|-------------------------------------|
B|-------------------------------------|---------------------------------|-------------------------------------|
G|-2----2----X-----X----X----2----2----|-2----2----X-----X-----2----2----|-2----2----X-----X----X----2----2----|
D|-2----2----X-----X----X----2----2----|-2----2----X-----X-----2----2----|-2----2----X-----X----X----2----2----|
A|-0----0----X-----X----X----0----0----|-0----0----X-----X-----0----0----|-0----0----X-----X----X----0----0----|
E|-------------------------------------|---------------------------------|-------------------------------------|

E|---------------------------------|-------------------------------------|---------------------------------|
B|---------------------------------|-------------------------------------|---------------------------------|
G|-2----2----X-----X-----2----2----|-2----2----X-----X----X----2----2----|-2----2----X-----X-----2----2----|
D|-2----2----X-----X-----2----2----|-2----2----X-----X----X----2----2----|-2----2----X-----X-----2----2----|
A|-0----0----X-----X-----0----0----|-0----0----X-----X----X----0----0----|-0----0----X-----X-----0----0----|
E|---------------------------------|-------------------------------------|---------------------------------|

E|-------------------------------------|---------------------------------|-------------------------------------|
B|-------------------------------------|---------------------------------|-------------------------------------|
G|-2----2----X-----X----X----2----2----|-2----2----X-----X-----2----2----|-2----2----X-----X----X----2----2----|
D|-2----2----X-----X----X----2----2----|-2----2----X-----X-----2----2----|-2----2----X-----X----X----2----2----|
A|-0----0----X-----X----X----0----0----|-0----0----X-----X-----0----0----|-0----0----X-----X----X----0----0----|
E|-------------------------------------|---------------------------------|-------------------------------------|

E|---------------------------------|-------------------------------------|---------------------------------|
B|---------------------------------|-------------------------------------|---------------------------------|
G|-2----2----X-----X-----2----2----|-2----2----X-----X----X----2----2----|-2----2----X-----X-----2----2----|
D|-2----2----X-----X-----2----2----|-2----2----X-----X----X----2----2----|-2----2----X-----X-----2----2----|
A|-0----0----X-----X-----0----0----|-0----0----X-----X----X----0----0----|-0----0----X-----X-----0----0----|
E|---------------------------------|-------------------------------------|---------------------------------|

E|---------------------------------|---------------------------------|---------------------------------|
B|---------------------------------|---------------------------------|---------------------------------|
G|-2----4----X-----X-----4----4----|-4----4----X-----X-----4----4----|-4----4----X-----X-----4----4----|
D|-2----4----X-----X-----4----4----|-4----4----X-----X-----4----4----|-4----4----X-----X-----4----4----|
A|-0----2----X-----X-----2----2----|-2----2----X-----X-----2----2----|-2----2----X-----X-----2----2----|
E|---------------------------------|---------------------------------|---------------------------------|

E|---------------------------------|---------------------------------|---------------------------------|
B|---------------------------------|---------------------------------|---------------------------------|
G|-4----4----X-----X-----4----4----|-4----4----X-----X-----4----4----|-4----4----X-----X-----4----4----|
D|-4----4----X-----X-----4----4----|-4----4----X-----X-----4----4----|-4----4----X-----X-----4----4----|
A|-2----2----X-----X-----2----2----|-2----2----X-----X-----2----2----|-2----2----X-----X-----2----2----|
E|---------------------------------|---------------------------------|---------------------------------|

E|---------------------------------|---------------------------------|---------------------------------|
B|---------------------------------|---------------------------------|---------------------------------|
G|-4----4----X-----X-----4----4----|-4----4----X-----X-----4----4----|-4----4----4-----4-----4----4----|
D|-4----4----X-----X-----4----4----|-4----4----X-----X-----4----4----|-4----4----4-----4-----4----4----|
A|-2----2----X-----X-----2----2----|-2----2----X-----X-----2----2----|-2----2----2-----2-----2----2----|
E|---------------------------------|---------------------------------|---------------------------------|

E|---------------------------------|---------------------------------|---------------------------------|
B|---------------------------------|---------------------------------|---------------------------------|
G|-4----4----4-----4-----4----4----|-4----4----4-----4-----4----4----|-4----4----4-----4-----4----4----|
D|-4----4----4-----4-----4----4----|-4----4----4-----4-----4----4----|-4----4----4-----4-----4----4----|
A|-2----2----2-----2-----2----2----|-2----2----2-----2-----2----2----|-2----2----2-----2-----2----2----|
E|---------------------------------|---------------------------------|---------------------------------|

E|---------------------------------|---------------------------------|---------------------------------|
B|---------------------------------|---------------------------------|---------------------------------|
G|-4----4----4-----4-----4----4----|-4----4----4-----4-----4----4----|-4----4----4-----4-----4----4----|
D|-4----4----4-----4-----4----4----|-4----4----4-----4-----4----4----|-4----4----4-----4-----4----4----|
A|-2----2----2-----2-----2----2----|-2----2----2-----2-----2----2----|-2----2----2-----2-----2----2----|
E|---------------------------------|---------------------------------|---------------------------------|

E|---------------------------------|---------------------------------|---------------------------------|
B|---------------------------------|---------------------------------|---------------------------------|
G|-4----4----4-----4-----4----4----|-4----4----4-----4-----4----4----|-4----4----4-----4-----4----4----|
D|-4----4----4-----4-----4----4----|-4----4----4-----4-----4----4----|-4----4----4-----4-----4----4----|
A|-2----2----2-----2-----2----2----|-2----2----2-----2-----2----2----|-2----2----2-----2-----2----2----|
E|---------------------------------|---------------------------------|---------------------------------|

E|---------------------------------|---------------------------------|---------------------------------|
B|---------------------------------|---------------------------------|---------------------------------|
G|-4----4----4-----4-----4----4----|-4----4----4-----4-----4----4----|-4----4----4-----4-----4----4----|
D|-4----4----4-----4-----4----4----|-4----4----4-----4-----4----4----|-4----4----4-----4-----4----4----|
A|-2----2----2-----2-----2----2----|-2----2----2-----2-----2----2----|-2----2----2-----2-----2----2----|
E|---------------------------------|---------------------------------|---------------------------------|

E|---------------------------------|---------------------------------|---------------------------------|
B|---------------------------------|---------------------------------|---------------------------------|
G|-4----4----4-----4-----4----4----|-4----4----4-----4-----4----4----|-4----4----4-----4-----4----4----|
D|-4----4----4-----4-----4----4----|-4----4----4-----4-----4----4----|-4----4----4-----4-----4----4----|
A|-2----2----2-----2-----2----2----|-2----2----2-----2-----2----2----|-2----2----2-----2-----2----2----|
E|---------------------------------|---------------------------------|---------------------------------|

E|---------------------------------|---------------------------------|---------------------------------|
B|---------------------------------|---------------------------------|---------------------------------|
G|-4----4----4-----4-----4----4----|-4----4----4-----4-----4----4----|-4----4----4-----4-----4----4----|
D|-4----4----4-----4-----4----4----|-4----4----4-----4-----4----4----|-4----4----4-----4-----4----4----|
A|-2----2----2-----2-----2----2----|-2----2----2-----2-----2----2----|-2----2----2-----2-----2----2----|
E|---------------------------------|---------------------------------|---------------------------------|

E|---------------------------------|---------------------------------|---------------------------------|
B|---------------------------------|---------------------------------|---------------------------------|
G|-4----4----4-----4-----4----4----|-4----4----4-----4-----4----4----|-4----4----4-----4-----4----4----|
D|-4----4----4-----4-----4----4----|-4----4----4-----4-----4----4----|-4----4----4-----4-----4----4----|
A|-2----2----2-----2-----2----2----|-2----2----2-----2-----2----2----|-2----2----2-----2-----2----2----|
E|---------------------------------|---------------------------------|---------------------------------|

E|---------------------------------|---------------------------------|---------------------------------|
B|---------------------------------|---------------------------------|---------------------------------|
G|-4----4----4-----4-----4----4----|-4----4----4-----4-----4----4----|-4----4----4-----4-----4----4----|
D|-4----4----4-----4-----4----4----|-4----4----4-----4-----4----4----|-4----4----4-----4-----4----4----|
A|-2----2----2-----2-----2----2----|-2----2----2-----2-----2----2----|-2----2----2-----2-----2----2----|
E|---------------------------------|---------------------------------|---------------------------------|

E|---------------------------------|---------------------------------|---------------------------------|
B|---------------------------------|---------------------------------|---------------------------------|
G|-4----4----4-----4-----4----4----|-4----4----4-----4-----4----4----|-4----4----4-----4-----4----4----|
D|-4----4----4-----4-----4----4----|-4----4----4-----4-----4----4----|-4----4----4-----4-----4----4----|
A|-2----2----2-----2-----2----2----|-2----2----2-----2-----2----2----|-2----2----2-----2-----2----2----|
E|---------------------------------|---------------------------------|---------------------------------|

E|---------------------------------|---------------------------------|---------------------|
B|---------------------------------|---------------------------------|---------------------|
G|-4----4----4-----4-----4----4----|-4----4----4-----4-----4----4----|-4------4------4-----|
D|-4----4----4-----4-----4----4----|-4----4----4-----4-----4----4----|-4------4------4-----|
A|-2----2----2-----2-----2----2----|-2----2----2-----2-----2----2----|-2------2------2-----|
E|---------------------------------|---------------------------------|---------------------|

E|-------------------------|-----------------------------------------------------------------|
B|-------------------------|-----------------------------------------------------------------|
G|-4----4------4-----4-----|-4---4---4---4---4---4---4---4---4---4---4---4---4---4---4---4---|
D|-4----4------4-----4-----|-4---4---4---4---4---4---4---4---4---4---4---4---4---4---4---4---|
A|-2----2------2-----2-----|-2---2---2---2---2---2---2---2---2---2---2---2---2---2---2---2---|
E|-------------------------|-----------------------------------------------------------------|

E|-----------------------------------------------------------------|
B|-----------------------------------------------------------------|
G|-4---4---4---4---4---4---4---4---4---4---4---4---4---4---4---4---|
D|-4---4---4---4---4---4---4---4---4---4---4---4---4---4---4---4---|
A|-2---2---2---2---2---2---2---2---2---2---2---2---2---2---2---2---|
E|-----------------------------------------------------------------|
ACDC - Let There Be Rock
ACDC - Let There Be Rock.gp3