ACDC - Love Bomb

AC-DC



Title: Love Bomb
Album: Ballbreaker
Artist: AC/DC
Author: Malcolm Young / Angus Young

Track 1: Guitare 1
E|--------------------|--------------------|--------------------|-------------|---------|
B|-12-----10---10-----|--------7----7------|-12-----10---10-----|-------------|---------|
G|--------------------|-9------------------|--------------------|-9------9----|-9-------|
D|--------------------|--------------------|--------------------|-------------|---------|
A|--------------------|--------------------|--------------------|-------------|---------|
E|--------------------|--------------------|--------------------|-------------|---------|

E|---------------|-------------------------------------|---------|-------------------------------------|
B|---------------|-------------------------------------|---------|-------------------------------------|
G|-9-------9-----|-4----4----4----4----4----4----%-----|-%-------|-4----4----4----4----4----4----%-----|
D|---------------|-4----4----4----4----4----4----%-----|-%-------|-4----4----4----4----4----4----%-----|
A|---------------|-0----2----2----0----0----2----------|---------|-0----2----2----0----0----2----------|
E|---------------|-------------------------------------|---------|-------------------------------------|

E|---------|-------------------------------------|---------|-------------------------------------|
B|---------|-------------------------------------|---------|-------------------------------------|
G|-%-------|-4----4----4----4----4----4----%-----|-%-------|-4----4----4----4----4----4----%-----|
D|-%-------|-4----4----4----4----4----4----%-----|-%-------|-4----4----4----4----4----4----%-----|
A|---------|-0----2----2----0----0----2----------|---------|-0----2----2----0----0----2----------|
E|---------|-------------------------------------|---------|-------------------------------------|

E|------------------------|-2---------------------------|-2---------------------------|
B|------------------------|-2----------2----2-----------|-3----------2----2-----------|
G|-%------%---------------|-3----------2----2-----------|-2----------2----2-----------|
D|-%------%---------------|-4----------2----2-----------|-0----------2----2-----------|
A|------------------------|-4-----0----0----0------X----|-0-----0----0----0-----------|
E|--------------2----2----|-2-----0---------------------|------------------------0----|

E|-0-------0---------|-------------------------------------|-2---------------------------|
B|-0-------0---------|-------------------------------------|-2----------2----2-----------|
G|-1-------1----4----|-4---------4-----4----4----4---------|-3----------2----2-----------|
D|-2-------2----4----|-4---------4-----4----4----4---------|-4----------2----2-----------|
A|-2-------2----2----|-2----2----2-----2----2----2---------|-4-----0----0----0------X----|
E|-0-------0---------|--------------------------------0----|-2-----0---------------------|

E|-2----------------------|-0------0-----------------0---0---|-0-----------------0---0---0----------------------|
B|-3----------2----2------|-0------0----2---2---2----0---0---|-0----2---2---2----0---0---0----------------------|
G|-2----------2----2------|-1------1----2---2---2----1---1---|-1----2---2---2----1---1---1----4---4---4---------|
D|-0----------2----2------|-2------2----2---2---2----2---2---|-2----2---2---2----2---2---2----4---4---4---------|
A|-0-----0----0----0------|-2------2----0---0---0----2---2---|-2----0---0---0----2---2---2----2---2---2---------|
E|------------------------|-0------0-----------------0---0---|-0-----------------0---0---0-----------------0----|

E|----------------------------|--------|---------|-------------------------------------|
B|----------------------------|--------|---------|-------------------------------------|
G|----------------4----4------|-4------|-4-------|-4----4----4----4----4----4----%-----|
D|-2----X----2----4----4------|-4------|-4-------|-4----4----4----4----4----4----%-----|
A|-2----X----2----2----2------|-2------|-2-------|-0----2----2----0----0----2----------|
E|-0---------0----------------|--------|---------|-------------------------------------|

E|--------0------|-------------------------------------|---------|-------------------------------------|
B|--------0------|-------------------------------------|---------|-------------------------------------|
G|-%------1------|-4----4----4----4----4----4----%-----|-%-------|-4----4----4----4----4----4----%-----|
D|-%------2------|-4----4----4----4----4----4----%-----|-%-------|-4----4----4----4----4----4----%-----|
A|--------2------|-0----2----2----0----0----2----------|---------|-0----2----2----0----0----2----------|
E|--------0------|-------------------------------------|---------|-------------------------------------|

E|--------0------|-2---------------------------|-2---------------------------|-0-------0---------|
B|--------0------|-2----------2----2-----------|-3----------2----2-----------|-0-------0---------|
G|-%------1------|-3----------2----2-----------|-2----------2----2-----------|-1-------1----4----|
D|-%------2------|-4----------2----2-----------|-0----------2----2-----------|-2-------2----4----|
A|--------2------|-4-----0----0----0------X----|-0-----0----0----0-----------|-2-------2----2----|
E|--------0------|-2-----0---------------------|------------------------0----|-0-------0---------|

E|-------------------------------------|-2---------------------------|-2----------------------|
B|-------------------------------------|-2----------2----2-----------|-3----------2----2------|
G|-4---------4-----4----4----4---------|-3----------2----2-----------|-2----------2----2------|
D|-4---------4-----4----4----4---------|-4----------2----2-----------|-0----------2----2------|
A|-2----2----2-----2----2----2---------|-4-----0----0----0------X----|-0-----0----0----0------|
E|--------------------------------0----|-2-----0---------------------|------------------------|

E|-0------0-----------------0---0---|-0-----------------0---0---0----------------------|
B|-0------0----2---2---2----0---0---|-0----2---2---2----0---0---0----------------------|
G|-1------1----2---2---2----1---1---|-1----2---2---2----1---1---1----4---4---4---------|
D|-2------2----2---2---2----2---2---|-2----2---2---2----2---2---2----4---4---4---------|
A|-2------2----0---0---0----2---2---|-2----0---0---0----2---2---2----2---2---2---------|
E|-0------0-----------------0---0---|-0-----------------0---0---0-----------------0----|

E|-4----0---------2----2------|-3----2-----------------|-4----0---------2----2------|
B|-----------0----0----0------|-0----3-----2----2------|-----------0----0----0------|
G|----------------------------|-0----2-----2----2------|----------------------------|
D|----------------------------|-0----0-----2----2------|----------------------------|
A|----------------------------|------------0----0------|----------------------------|
E|----------------------------|-3----------------------|----------------------------|

E|-3----2-----0----0------|-4----0---------2----2------|-3----2-----------------|-4----0---------2----2------|
B|-0----3-----0----0------|-----------0----0----0------|-0----3-----2----2------|-----------0----0----0------|
G|-0----2-----1----1------|----------------------------|-0----2-----2----2------|----------------------------|
D|-0----0-----2----2------|----------------------------|-0----0-----2----2------|----------------------------|
A|------------2----2------|----------------------------|------------0----0------|----------------------------|
E|-3----------0----0------|----------------------------|-3----------------------|----------------------------|

E|-3----2-----0----0------|-0------|-------------------------------------|-------2-----------------|
B|-0----3-----0----0------|-0------|-------------------------------------|-------3-----------------|
G|-0----2-----1----1------|-1------|-4----4----4----4----4----4----%-----|-%-----2-----2-----------|
D|-0----0-----2----2------|-2------|-4----4----4----4----4----4----%-----|-%-----0-----2-----2-----|
A|------------2----2------|-2------|-0----2----2----0----0----2----------|-------------0-----2-----|
E|-3----------0----0------|-0------|-------------------------------------|-------------------0-----|

E|-------------------------------------|-------3-----2-----------|-------------------------------------|
B|-------------------------------------|-------3-----3-----------|-------------------------------------|
G|-4----4----4----4----4----4----%-----|-%-----0-----2-----2-----|-4----4----4----4----4----4----%-----|
D|-4----4----4----4----4----4----%-----|-%-----0-----0-----2-----|-4----4----4----4----4----4----%-----|
A|-0----2----2----0----0----2----------|-------------------0-----|-0----2----2----0----0----2----------|
E|-------------------------------------|-------3-----------------|-------------------------------------|

E|-------2-----------------|-------------------------------------|------3---3---3----2---3----------------------|
B|-------3-----------------|-------------------------------------|------3---3---3----3---3----------------------|
G|-%-----2-----2-----------|-4----4----4----4----4----4----%-----|-%----0---0---0----2---2---2----2---2---2-----|
D|-%-----0-----2-----2-----|-4----4----4----4----4----4----%-----|-%----0---0---0----0---0---2----2---2---2-----|
A|-------------0-----2-----|-0----2----2----0----0----2----------|---------------------------0----0---0---0-----|
E|-------------------0-----|-------------------------------------|------3---3---3-------------------------------|

E|-3------2----2------2----|---------------------------------|-3------2----2-----2----2----|
B|-3------3----3------3----|---------------------------------|-3------3----3-----3----3----|
G|-0------2----2------2----|-2------4----4----4----4----4----|-0------2----2-----2----2----|
D|-0------0----0------0----|-2------4----4----4----4----4----|-0------0----0-----0----0----|
A|-------------------------|-0------2----2----2----2----2----|-----------------------------|
E|-3-----------------------|---------------------------------|-3---------------------------|

E|-----------------------------|-3------2----2----2----2----2----|---------------------------------|
B|-----------------------------|-3------3----3----3----3----3----|---------------------------------|
G|-2---------------------------|-0------2----2----2----2----2----|-2------4----4----4----4----4----|
D|-2------2----2-----2----2----|-0------0----0----0----0----0----|-2------4----4----4----4----4----|
A|-0------2----2-----2----2----|---------------------------------|-0------2----2----2----2----2----|
E|--------0----0-----0----0----|-3-------------------------------|---------------------------------|

E|-3------2----2-----2----2----|-----------------------------------------------|--------------------------------------------------|
B|-3------3----3-----3----3----|--------------------------3---3---3----2---2---|-2----3---3---3----2---2---2----3---3---3----2----|
G|-0------2----2-----2----2----|-2----2----2----2----2----2---2---2----2---2---|-2----2---2---2----2---2---2----2---2---2----2----|
D|-0------0----0-----0----0----|-2----2----2----2----2----4---4---4----2---2---|-2----4---4---4----2---2---2----4---4---4----2----|
A|-----------------------------|-0----0----0----0----0----0---0---0----0---0---|-0----0---0---0----0---0---0----0---0---0----0----|
E|-3---------------------------|-----------------------------------------------|--------------------------------------------------|

E|-----------------------------------------------|--------------------------------------------------|
B|--------------------------3---3---3----2---2---|-2----3---3---3----2---2---2----3---3---3---------|
G|-2----2----2----2----2----2---2---2----2---2---|-2----2---2---2----2---2---2----2---2---2----2----|
D|-2----2----2----2----2----4---4---4----2---2---|-2----4---4---4----2---2---2----4---4---4----2----|
A|-0----0----0----0----0----0---0---0----0---0---|-0----0---0---0----0---0---0----0---0---0----0----|
E|-----------------------------------------------|--------------------------------------------------|

E|-4----0---------2----2------|-3----2-----------------|-4----0---------2----2------|
B|-----------0----0----0------|-0----3-----2----2------|-----------0----0----0------|
G|----------------------------|-0----2-----2----2------|----------------------------|
D|----------------------------|-0----0-----2----2------|----------------------------|
A|----------------------------|------------0----0------|----------------------------|
E|----------------------------|-3----------------------|----------------------------|

E|-3----2-----0----0------|-4----0---------2----2------|-3----2-----------------|-4----0---------2----2------|
B|-0----3-----0----0------|-----------0----0----0------|-0----3-----2----2------|-----------0----0----0------|
G|-0----2-----1----1------|----------------------------|-0----2-----2----2------|----------------------------|
D|-0----0-----2----2------|----------------------------|-0----0-----2----2------|----------------------------|
A|------------2----2------|----------------------------|------------0----0------|----------------------------|
E|-3----------0----0------|----------------------------|-3----------------------|----------------------------|

E|-3----2-----0----0------|-4----0---------2----2------|-3----2-----------------|-4----0---------2----2------|
B|-0----3-----0----0------|-----------0----0----0------|-0----3-----2----2------|-----------0----0----0------|
G|-0----2-----1----1------|----------------------------|-0----2-----2----2------|----------------------------|
D|-0----0-----2----2------|----------------------------|-0----0-----2----2------|----------------------------|
A|------------2----2------|----------------------------|------------0----0------|----------------------------|
E|-3----------0----0------|----------------------------|-3----------------------|----------------------------|

E|-3----2-----0----0------|-4----0---------2----2------|-3----2-----------------|-4----0---------2----2------|
B|-0----3-----0----0------|-----------0----0----0------|-0----3-----2----2------|-----------0----0----0------|
G|-0----2-----1----1------|----------------------------|-0----2-----2----2------|----------------------------|
D|-0----0-----2----2------|----------------------------|-0----0-----2----2------|----------------------------|
A|------------2----2------|----------------------------|------------0----0------|----------------------------|
E|-3----------0----0------|----------------------------|-3----------------------|----------------------------|

E|-3----2-----0----0------|-4----0---------2----2-------------------|-----------------------------------------|
B|-0----3-----0----0------|-----------0----0----0-------------------|-----------------------------------------|
G|-0----2-----1----1------|--------------------------4----4----4----|-4----4----4----4----4----4----4----4----|
D|-0----0-----2----2------|--------------------------4----4----4----|-4----4----4----4----4----4----4----4----|
A|------------2----2------|--------------------------2----2----2----|-2----2----2----2----2----2----2----2----|
E|-3----------0----0------|-----------------------------------------|-----------------------------------------|

E|-4----0---------2----2-------------------|-----------------------------------------|
B|-----------0----0----0-------------------|-----------------------------------------|
G|--------------------------4----4----4----|-4----4----4----4----4----4----4----4----|
D|--------------------------4----4----4----|-4----4----4----4----4----4----4----4----|
A|--------------------------2----2----2----|-2----2----2----2----2----2----2----2----|
E|-----------------------------------------|-----------------------------------------|

E|-4----0---------2----2-------------------|-----------------------------------------|
B|-----------0----0----0-------------------|-----------------------------------------|
G|--------------------------4----4----4----|-4----4----4----4----4----4----4----4----|
D|--------------------------4----4----4----|-4----4----4----4----4----4----4----4----|
A|--------------------------2----2----2----|-2----2----2----2----2----2----2----2----|
E|-----------------------------------------|-----------------------------------------|

E|-4----0---------2----2-------------------|-----------------------------------------|
B|-----------0----0----0-------------------|-----------------------------------------|
G|--------------------------4----4----4----|-4----4----4----4----4----4----4----4----|
D|--------------------------4----4----4----|-4----4----4----4----4----4----4----4----|
A|--------------------------2----2----2----|-2----2----2----2----2----2----2----2----|
E|-----------------------------------------|-----------------------------------------|

E|---------------------|-4----0---------2----2------|-3----2-----------------|---------|
B|----------------0----|-----------0----0----0------|-3----3-----------------|---------|
G|-4----4----4----0----|----------------------------|-0----2-----------------|---------|
D|-4----4----4----0----|----------------------------|-0----0-----2----2------|-2-------|
A|-2----2----2----0----|----------------------------|------------2----2------|-2-------|
E|---------------------|----------------------------|-3----------0----0------|-0-------|

E|---------------------------|---------|
B|---------------------------|---------|
G|-1---1---1----%-----%------|-%-------|
D|-2---2---2----%-----%------|-%-------|
A|-2---2---2-----------------|---------|
E|-0---0---0-----------------|---------|
ACDC - Love Bomb
ACDC - Love Bomb.gp3