ACDC - Meltdown

AC-DC



Title: Meltdown
Album: Stiff Upper Lip
Artist: ACDC
Author: Angus & Malcom Young

Track 1: Guitare 1
E|------------------------|------0----0--------------0----------|------------------------|
B|------------------------|------0----3---------2----2----------|------------------------|
G|-%------%-----%----0----|-1---------4----%----2----2----%-----|-%------%-----%----0----|
D|-%------%-----%---------|----------------%--------------%-----|-%------%-----%----0----|
A|------------------------|-------------------------------------|-------------------0----|
E|------------------------|-------------------------------------|-------------------0----|

E|------0----0--------------0----------|------------------------|------0----0--------------0--------------|
B|------0----3---------2----2----------|------------------------|------0----3---------2----2--------------|
G|-1---------4----%----2----2----%-----|-%------%-----%----0----|-1---------4----%----2----2----%---------|
D|-2--------------%--------------%-----|-%------%-----%----0----|-2--------------%--------------%---------|
A|-2-----------------------------------|-------------------0----|-2----------------------------------0----|
E|-------------------------------------|-------------------0----|------------------------------------0----|

E|------0-------------------0--------------|------0-------------------0--------------|
B|-----------3---------2----2--------------|------0----3---------2----2--------------|
G|-----------4----%----2----2----%---------|-----------4----%----2----2----%----0----|
D|----------------%--------------%----0----|-2--------------%--------------%----0----|
A|-2----------------------------------0----|-2----------------------------------0----|
E|------------------------------------0----|------------------------------------0----|

E|------0-------------------0--------------|------0-------------------0--------------|
B|------0----3---------2----2--------------|------0----3---------2----2--------------|
G|-1---------4----%----2----2----%----0----|-1---------4----%----2----2----%----0----|
D|-2--------------%--------------%---------|----------------%--------------%---------|
A|-2---------------------------------------|-----------------------------------------|
E|-----------------------------------------|-----------------------------------------|

E|------0-------------------0--------------|------0-------------------0--------------|
B|------0----3---------2----2--------------|------0----3---------2----2--------------|
G|-1---------4----%----2----2----%----0----|-1---------4----%----2----2----%----0----|
D|----------------%--------------%---------|----------------%--------------%---------|
A|-----------------------------------------|-----------------------------------------|
E|-----------------------------------------|-----------------------------------------|

E|------0-------------------0--------------|------0-------------------0--------------|
B|------0----3---------2----2--------------|------0----3---------2----2--------------|
G|-1---------4----%----2----2----%----0----|-1---------4----%----2----2----%----0----|
D|----------------%--------------%---------|----------------%--------------%---------|
A|-----------------------------------------|-----------------------------------------|
E|-----------------------------------------|-----------------------------------------|

E|------0-------------------0--------------|------0-------------------0--------------|
B|------0----3---------2----2--------------|------0----3---------2----2--------------|
G|-1---------4----%----2----2----%----0----|-1---------4----%----2----2----%----0----|
D|----------------%--------------%---------|----------------%--------------%---------|
A|-----------------------------------------|-----------------------------------------|
E|-----------------------------------------|-----------------------------------------|

E|------0----0--------------0--------------|-----------------------------------------|
B|------0----3---------2----2---------7----|-7----7----0----2----0----2----0----7----|
G|-1---------4----%----2----2----%----7----|-7----7----0----2----0----2----0----7----|
D|----------------%--------------%---------|-----------------------------------------|
A|-----------------------------------------|-----------------------------------------|
E|-----------------------------------------|-----------------------------------------|

E|-----------------------------------------|-----------------------------------------|
B|-7----7----0----2----0----2----0----7----|-7----7----0----2----0----2----0----7----|
G|-7----7----0----2----0----2----0----7----|-7----7----0----2----0----2----0----7----|
D|-----------------------------------------|-----------------------------------------|
A|-----------------------------------------|-----------------------------------------|
E|-----------------------------------------|-----------------------------------------|

E|-----------------------------------------|-----------------------------------------|
B|-7----7----0----2----0----2----0----7----|-7----7----0----2----0----2----0----7----|
G|-7----7----0----2----0----2----0----7----|-7----7----0----2----0----2----0----7----|
D|-----------------------------------------|-----------------------------------------|
A|-----------------------------------------|-----------------------------------------|
E|-----------------------------------------|-----------------------------------------|

E|-----------------------------------------|-------------------------------------------------------------|
B|-7----7----0----2----0----2----0----0----|-------------------------------------------------------------|
G|-7----7----0----2----0----2----0----0----|------2--------------2--------------2-------------------2----|
D|-----------------------------------------|-2--------------2--------------2--------------2----2----2----|
A|-----------------------------------------|-0---------0----0---------0----0---------0----0---------0----|
E|-----------------------------------------|-------------------------------------------------------------|

E|--------------------------------------------------------|------0----0--------------0--------------|
B|-2------------------------------------------------------|------0----3---------2----2--------------|
G|-2----2--------------2--------------2----2----2----0----|-1---------4----%----2----2----%---------|
D|-2----2---------2--------------2---------2----2----0----|-2--------------%--------------%---------|
A|-0---------0----0---------0----0---------0----0----0----|-2----------------------------------0----|
E|---------------------------------------------------0----|------------------------------------0----|

E|------0-------------------0--------------|------0-------------------0--------------|
B|-----------3---------2----2--------------|------0----3---------2----2--------------|
G|-----------4----%----2----2----%---------|-----------4----%----2----2----%----0----|
D|----------------%--------------%----0----|-2--------------%--------------%----0----|
A|-2----------------------------------0----|-2----------------------------------0----|
E|------------------------------------0----|------------------------------------0----|

E|------0-------------------0--------------|------0-------------------0--------------|
B|------0----3---------2----2--------------|-----------3---------2----2--------------|
G|-----------4----%----2----2----%----0----|-----------4----%----2----2----%---------|
D|-2--------------%--------------%----0----|----------------%--------------%----0----|
A|-2----------------------------------0----|-2----------------------------------0----|
E|------------------------------------0----|------------------------------------0----|

E|------0-------------------0--------------|------0-------------------0--------------|
B|-----------3---------2----2--------------|-----------3---------2----2--------------|
G|-----------4----%----2----2----%---------|-----------4----%----2----2----%---------|
D|----------------%--------------%----0----|----------------%--------------%----0----|
A|-2----------------------------------0----|-2----------------------------------0----|
E|------------------------------------0----|------------------------------------0----|

E|------0-------------------0--------------|------0-------------------0--------------|
B|-----------3---------2----2--------------|-----------3---------2----2--------------|
G|-----------4----%----2----2----%---------|-----------4----%----2----2----%---------|
D|----------------%--------------%----0----|----------------%--------------%----0----|
A|-2----------------------------------0----|-2----------------------------------0----|
E|------------------------------------0----|------------------------------------0----|

E|------0----0--------------0--------------|------5-------------------5--------------|
B|------0----3---------2----2---------5----|------5----8---------7----5---------5----|
G|-----------4----%----2----2----%----5----|-6---------7----%----7---------%----5----|
D|-2--------------%--------------%---------|----------------%----7---------%---------|
A|-2---------------------------------------|-----------------------------------------|
E|-----------------------------------------|-----------------------------------------|

E|------5-------------------5--------------|------0-------------------0--------------|
B|------5----8---------7----5--------------|------0----3---------2----2--------------|
G|-6---------7----%----7---------%---------|-----------4----%----2----2----%---------|
D|----------------%----7---------%----0----|-2--------------%--------------%----0----|
A|------------------------------------0----|-2----------------------------------0----|
E|------------------------------------0----|------------------------------------0----|

E|------0-------------------0--------------|-----------------------------------------|
B|------0----3---------2----2---------7----|-7----7----0----2----0----2----0---------|
G|-----------4----%----2----2----%----7----|-7----7----0----2----0----2----0----%----|
D|-2--------------%--------------%---------|------------------------------------%----|
A|-2---------------------------------------|-----------------------------------------|
E|-----------------------------------------|-----------------------------------------|

E|------------------------------------------|------0----0--------------0--------------|
B|------------------------------------------|------0----3---------2----2--------------|
G|------2----2----%---------2-----2---------|-1---------4----%----2----2----%---------|
D|-2---------2----%----2----------2----0----|-2--------------%--------------%----0----|
A|-0---------0---------0----------0----0----|-2----------------------------------0----|
E|-------------------------------------0----|------------------------------------0----|

E|------0-------------------0--------------|------0-------------------0--------------|
B|------0----3---------2----2--------------|------0----3---------2----2--------------|
G|-----------4----%----2----2----%---------|-----------4----%----2----2----%---------|
D|-2--------------%--------------%----0----|-2--------------%--------------%----0----|
A|-2----------------------------------0----|-2----------------------------------0----|
E|------------------------------------0----|------------------------------------0----|

E|------0-------------------0--------------|-----------------------------------------|
B|------0----3---------2----2---------7----|-7----7----0----2----0----2----0----7----|
G|-----------4----%----2----2----%----7----|-7----7----0----2----0----2----0----7----|
D|-2--------------%--------------%---------|-----------------------------------------|
A|-2---------------------------------------|-----------------------------------------|
E|-----------------------------------------|-----------------------------------------|

E|-----------------------------------------|-----------------------------------------|
B|-7----7----0----2----0----2----0----7----|-7----7----0----2----0----2----0----7----|
G|-7----7----0----2----0----2----0----7----|-7----7----0----2----0----2----0----7----|
D|-----------------------------------------|-----------------------------------------|
A|-----------------------------------------|-----------------------------------------|
E|-----------------------------------------|-----------------------------------------|

E|-----------------------------------------|-----------------------------------------|
B|-7----7----0----2----0----2----0----7----|-7----7----0----2----0----2----0----7----|
G|-7----7----0----2----0----2----0----7----|-7----7----0----2----0----2----0----7----|
D|-----------------------------------------|-----------------------------------------|
A|-----------------------------------------|-----------------------------------------|
E|-----------------------------------------|-----------------------------------------|

E|-----------------------------------------|-----------------------------------------|
B|-7----7----0----2----0----2----0----0----|-0----0----0----2----0----2----0----0----|
G|-7----7----0----2----0----2----0----0----|-0----0----0----2----0----2----0----0----|
D|-----------------------------------------|-----------------------------------------|
A|-----------------------------------------|-----------------------------------------|
E|-----------------------------------------|-----------------------------------------|

E|-----------------------------------------|------0----0--------------0--------------|
B|-0----0----0----2----0----2----0---------|------0----3---------2----2--------------|
G|-0----0----0----2----0----2----0----0----|-1---------4----%----2----2----%---------|
D|------------------------------------0----|-2--------------%--------------%---------|
A|------------------------------------0----|-2----------------------------------0----|
E|------------------------------------0----|------------------------------------0----|

E|------0----0--------------0--------------|------0----0--------------0--------------|
B|------0----3---------2----2--------------|------0----3---------2----2--------------|
G|-1---------4----%----2----2----%---------|-1---------4----%----2----2----%---------|
D|-2--------------%--------------%---------|-2--------------%--------------%---------|
A|-2----------------------------------0----|-2----------------------------------0----|
E|------------------------------------0----|------------------------------------0----|

E|------0----0--------------0--------------|------0----0--------------0--------------|
B|------0----3---------2----2--------------|------0----3---------2----2--------------|
G|-1---------4----%----2----2----%---------|-1---------4----%----2----2----%---------|
D|-2--------------%--------------%---------|-2--------------%--------------%---------|
A|-2----------------------------------0----|-2----------------------------------0----|
E|------------------------------------0----|------------------------------------0----|

E|------0----0--------------0--------------|------0----0--------------0--------------|
B|------0----3---------2----2--------------|------0----3---------2----2--------------|
G|-1---------4----%----2----2----%---------|-1---------4----%----2----2----%---------|
D|-2--------------%--------------%---------|-2--------------%--------------%---------|
A|-2----------------------------------0----|-2----------------------------------0----|
E|------------------------------------0----|------------------------------------0----|

E|------0----0--------------0--------------|-------------------------------0----0---------|
B|------0----3---------2----2--------------|----------------3---------2----2----2---------|
G|-1---------4----%----2----2----%---------|-1----1----1----4---------2----2----2----0----|
D|-2--------------%--------------%---------|-2----2----2----0---------2----2----2----0----|
A|-2----------------------------------0----|-2----2----2----0----0----0----0----0----0----|
E|------------------------------------0----|-0----0----0---------0-------------------0----|

E|-------------------------------0----0---------|-------------------------------0----0---------|
B|----------------3---------2----2----2---------|----------------3---------2----2----2---------|
G|-1----1----1----4---------2----2----2----0----|-1----1----1----4---------2----2----2----0----|
D|-2----2----2----0---------2----2----2----0----|-2----2----2----0---------2----2----2----0----|
A|-2----2----2----0----0----0----0----0----0----|-2----2----2----0----0----0----0----0----0----|
E|-0----0----0---------0-------------------0----|-0----0----0---------0-------------------0----|

E|-------------------------------0----0---------|-------------------------------0----0---------|
B|----------------3---------2----2----2---------|----------------3---------2----2----2---------|
G|-1----1----1----4---------2----2----2----0----|-1----1----1----4---------2----2----2----0----|
D|-2----2----2----0---------2----2----2----0----|-2----2----2----0---------2----2----2----0----|
A|-2----2----2----0----0----0----0----0----0----|-2----2----2----0----0----0----0----0----0----|
E|-0----0----0---------0-------------------0----|-0----0----0---------0-------------------0----|

E|-------------------------------0----0---------|-------------------------------------------------------------|
B|----------------3---------2----2----2---------|-------------------------------------------------------------|
G|-1----1----1----4---------2----2----2----0----|-1----1----1----1----1----1----1----1----1----1----1----1----|
D|-2----2----2----0---------2----2----2----0----|-2----2----2----2----2----2----2----2----2----2----2----2----|
A|-2----2----2----0----0----0----0----0----0----|-2----2----2----2----2----2---------2----2----2----2----2----|
E|-0----0----0---------0-------------------0----|-0----0----0----0----0----0----0----0----0----0----0----0----|

E|-------------------------------------------------------------|-------------------------------------------------------------|
B|-------------------------------------------------------------|-------------------------------------------------------------|
G|-1----1----1----1----1----1----1----1----1----1----1----1----|-1----1----1----1----1----1----1----1----1----1----1----1----|
D|-2----2----2----2----2----2----2----2----2----2----2----2----|-2----2----2----2----2----2----2----2----2----2----2----2----|
A|-2----2----2----2----2----2---------2----2----2----2----2----|-2----2----2----2----2----2---------2----2----2----2----2----|
E|-0----0----0----0----0----0----0----0----0----0----0----0----|-0----0----0----0----0----0----0----0----0----0----0----0----|

E|--------------------|---------|---------|---------|---------|---------|---------|
B|--------------------|---------|---------|---------|---------|---------|---------|
G|-1-----%-----%------|-%-------|-1-------|-1-------|-1-------|-1-------|-1-------|
D|-2-----%-----%------|-%-------|-2-------|-2-------|-2-------|-2-------|-2-------|
A|-2------------------|---------|-2-------|-2-------|-2-------|-2-------|-2-------|
E|-0------------------|---------|-0-------|-0-------|-0-------|-0-------|-0-------|

E|--------------------|
B|--------------------|
G|-2------%-----%-----|
D|-2------%-----%-----|
A|-0------------------|
E|--------------------|
ACDC - Meltdown
ACDC - Meltdown.gp3