ACDC - Moneytalks (solo)

ACDC - Moneytalks (solo)

AC-DC



Title: Moneytalks solo
Album: 
Artist: AC/DC
Author: Tchodz

Track 1: Trilha 1
E|-------7-------|-7-----3---------3----3----3----7----|-7-----3-----------------7------|
B|-------6-------|-6-----3----3----3----3----3----6----|-6-----3----3------------6------|
G|-%-------------|------------5------------------------|------------5---%----%----------|
D|-%-------------|-------------------------------------|----------------%----%----------|
A|---------------|-------------------------------------|--------------------------------|
E|---------------|-------------------------------------|--------------------------------|

E|-7-----3-----------------------------------|--------------------------------------3---|
B|-6-----3----6----6---5---3-------5----3----|-3--------------------------------3-------|
G|------------6----6---5---3-------5----3----|-3------------------------3---5-----------|
D|-----------------------------5-------------|-------5---3---5----5---------------------|
A|-------------------------------------------|------------------------------------------|
E|-------------------------------------------|------------------------------------------|

E|----------------------------------3-------|---------------------------------------|
B|-6---3-------3--------------------3-------|-----------------5----3----3-----------|
G|---------5-------3---------7----------%---|-7---5---3-------5----3----3------12---|
D|----------------------5---------------%---|-------------5-------------------------|
A|------------------------------------------|---------------------------------------|
E|------------------------------------------|---------------------------------------|

E|---------------------------------|-----------------------------------------------|
B|------------------15---15---15---|-15---15---15---15---15------------------------|
G|-12----14----14---15---14---15---|-14---15---14---15---15--14--12-----------14---|
D|---------------------------------|----------------------------------12--14-------|
A|---------------------------------|-----------------------------------------------|
E|---------------------------------|-----------------------------------------------|

E|-------------------------------------|-------------------------------------|-----------------------------|
B|-------15----------------------------|--------------------------------15---|-15----15----15----15--------|
G|-15----16---12---12--------12---12---|------12---12---12---12----12---14---|-14----14----14----14---12---|
D|----------------------14-------------|-17----------------------------------|-----------------------------|
A|-------------------------------------|-------------------------------------|-----------------------------|
E|-------------------------------------|-------------------------------------|-----------------------------|

E|----------------------------------------|-------------------------------------|-------------------------------------|
B|----------------------------------------|----------------3----3---------------|-3-----5----3----3----3---------15---|
G|-12-------------------------------------|----------------3----3---------------|-3-----5----3----3----3----%----14---|
D|-------10--12--10---10--------5----5----|------5----5--------------3----5-----|---------------------------%---------|
A|-------------------------7--------------|-7-----------------------------------|-------------------------------------|
E|----------------------------------------|-------------------------------------|-------------------------------------|

E|-----------------------------------------|-18----18----18----18-----18---|---------|
B|-15----X---15----X---15----X---15----X---|-------------------------------|---------|
G|-14----X---14----X---14----X---14----X---|-------------------------------|-%-------|
D|-----------------------------------------|-------------------------------|-%-------|
A|-----------------------------------------|-------------------------------|---------|
E|-----------------------------------------|-------------------------------|---------|
ACDC - Moneytalks (solo)
ACDC - Moneytalks (solo).gp3