ACDC - Moneytalks (Solo) (2)

AC-DC



Title: Moneytalks (solo)
Album: AC/DC live
Artist: AC/DC
Author: 

Track 1: Guitare Solo
E|---------------------|---------------------|---------------------|-------6------3----6----|
B|-3------3------3-----|-3-----3------3------|-3------3------3-----|-3-----5------3----5----|
G|-2------2------2-----|-2-----2------2------|-2------2------2-----|-2----------------------|
D|-0------0------0-----|-0-----0------0------|-0------0------0-----|-0----------------------|
A|-0------0------0-----|-0-----0------0------|-0------0------0-----|-0----------------------|
E|---------------------|---------------------|---------------------|------------------------|

E|-6-----3---------3----3----3----6----|-6-----3---------3---------3---------|-3--------------3--------------3----1-------|
B|-5-----3----5----3----3----3----5----|-5-----3----5----3----5----3----2----|-3----2----3----3----2----3----3--------3---|
G|------------3------------------------|------------3---------3--------------|--------------------------------------------|
D|-------------------------------------|-------------------------------------|--------------------------------------------|
A|-------------------------------------|-------------------------------------|--------------------------------------------|
E|-------------------------------------|-------------------------------------|--------------------------------------------|

E|------------------------------------|-----------------------------0----3----|-3-----3---0----3-----6-----7----|
B|-1----3---1-------------------------|-2---2-----------1----3----------------|----------------------------3----|
G|--------------3----0------0----3----|---------3---0-------------------------|---------------------------------|
D|------------------------------------|---------------------------------------|---------------------------------|
A|------------------------------------|---------------------------------------|---------------------------------|
E|------------------------------------|---------------------------------------|---------------------------------|

E|-7-----7----6-----7----5---5---3---0---|-3-----0----3-----5---3---0---3---6----|-6-----6----5----3----0----3----2----|
B|-3-------------------------------------|---------------------------------------|-------3----3----3-------------------|
G|---------------------------------------|---------------------------------------|-------------------------------------|
D|---------------------------------------|---------------------------------------|-------------------------------------|
A|---------------------------------------|---------------------------------------|-------------------------------------|
E|---------------------------------------|---------------------------------------|-------------------------------------|

E|-2----3----3----3-----6------|-6-----6-----6----6--------------|----------------------------------------|
B|----------------------5------|-5-----5-----5----5----3---------|----------------------------------------|
G|-----------------------------|----------------------------5----|-5----------------------------0----2----|
D|-----------------------------|---------------------------------|-------2---5----5-----5---2-------------|
A|-----------------------------|---------------------------------|----------------------------------------|
E|-----------------------------|---------------------------------|----------------------------------------|

E|---------------------------------|-------------------------------|-14--------15---14-----15--------|
B|---------------------------------|-----------4--------------15---|------15--------------------15---|
G|-2---------------------0----2----|-2----0------------0-----------|---------------------------------|
D|-------5----5-----2--------------|---------------2---------------|---------------------------------|
A|---------------------------------|-------------------------------|---------------------------------|
E|---------------------------------|-------------------------------|---------------------------------|

E|-19----19----19----19--------------|
B|-----------------------------------|
G|-----------------------------------|
D|-----------------------------------|
A|-----------------------------------|
E|------------------------15---10----|
ACDC - Moneytalks (Solo) (2)
ACDC - Moneytalks (Solo) (2).gp3