ACDC - Riff Raff

AC-DC



Title: Riff raff
Album: Powerage
Artist: AC/DC
Author: Angus & Malcolm Young & Bon Scott

Track 1: Angus Young
E|----------------------------------|-----------------------------------------------------|
B|----------------------------------|-----------------------------------------------------|
G|-%------%------------7------------|-7------------7------------7------------7------------|
D|-%------%------------4------------|-5------------4------------5------------4------------|
A|-------------0---0--------0---0---|------0---0--------0---0--------0---0--------0---0---|
E|----------------------------------|-----------------------------------------------------|

E|---------------------------|-----------------------------------------------------|
B|---------------------------|-----------------------------------------------------|
G|-7------%-----%------------|-7------------7------------7------------7------------|
D|-5------%-----%------------|-4------------5------------4------------5------------|
A|-0-----------------0---0---|------0---0--------0---0--------0---0--------0---0---|
E|---------------------------|-----------------------------------------------------|

E|---------|----------------------------------|-----------------------------------------------------|
B|-3-------|----------------------------------|-----------------------------------------------------|
G|-2-------|-2------%------------7------------|-7------------7------------7------------7------------|
D|-4-------|-2------%------------4------------|-5------------4------------5------------4------------|
A|---------|-0-----------0---0--------0---0---|------0---0--------0---0--------0---0--------0---0---|
E|---------|----------------------------------|-----------------------------------------------------|

E|---------------------------|-----------------------------------------------------|
B|---------------------------|-----------------------------------------------------|
G|-7------%-----%------------|-7------------7------------7------------7------------|
D|-5------%-----%------------|-4------------5------------4------------5------------|
A|-0-----------------0---0---|------0---0--------0---0--------0---0--------0---0---|
E|---------------------------|-----------------------------------------------------|

E|---------|----------------------------------|-----------------------------------------------------|
B|-3-------|----------------------------------|-----------------------------------------------------|
G|-2-------|-2------%------------7------------|-7------------7------------7------------7------------|
D|-4-------|-2------%------------4------------|-5------------4------------5------------4------------|
A|---------|-0-----------0---0--------0---0---|------0---0--------0---0--------0---0--------0---0---|
E|---------|----------------------------------|-----------------------------------------------------|

E|----------------------------------|-----------------------------------------------------|
B|----------------------------------|-----------------------------------------------------|
G|-7------%------------7------------|-7------------7------------6------------7------------|
D|-5------%------------4------------|-5------------4------------5------------4------------|
A|-0-----------0---0--------0---0---|------0---0--------0---0--------0---0--------0---0---|
E|----------------------------------|-----------------------------------------------------|

E|----------------------------------|-----------------------------------------------------|
B|----------------------------------|-----------------------------------------------------|
G|-2------%------------7------------|-7------------7------------7------------7------------|
D|-2------%------------4------------|-5------------4------------5------------4------------|
A|-0-----------0---0--------0---0---|------0---0--------0---0--------0---0--------0---0---|
E|----------------------------------|-----------------------------------------------------|

E|----------------------------------|-----------------------------------------------------|
B|----------------------------------|-----------------------------------------------------|
G|-7------%------------7------------|-7------------7------------6------------7------------|
D|-5------%------------4------------|-5------------4------------5------------4------------|
A|-0-----------0---0--------0---0---|------0---0--------0---0--------0---0--------0---0---|
E|----------------------------------|-----------------------------------------------------|

E|----------------------------------|-----------------------------------------------------|
B|----------------------------------|-----------------------------------------------------|
G|-2------%------------7------------|-7------------7------------7------------7------------|
D|-2------%------------4------------|-5------------4------------5------------4------------|
A|-0-----------0---0--------0---0---|------0---0--------0---0--------0---0--------0---0---|
E|----------------------------------|-----------------------------------------------------|

E|----------------------------------|-----------------------------------------------------|
B|----------------------------------|-----------------------------------------------------|
G|-7------%------------7------------|-7------------7------------6------------7------------|
D|-5------%------------4------------|-5------------4------------5------------4------------|
A|-0-----------0---0--------0---0---|------0---0--------0---0--------0---0--------0---0---|
E|----------------------------------|-----------------------------------------------------|

E|---------|------------------------|-------------------------------------|-------------------------------------|
B|---------|------------------------|-------------------------------------|-------------------------------------|
G|-2-------|-2------%----2-----2----|-2----2------------------------------|--------------------------2-----2----|
D|-2-------|-2------%----2-----2----|-2----2--------------------2----4----|-----------5--------------2-----2----|
A|-0-------|-0-----------0-----0----|-0----0-----0----3----4--------------|-3----0---------3----0----0-----0----|
E|---------|------------------------|-------------------------------------|-------------------------------------|

E|-------------------------------------|-------------------------------------|-------------------------------------|
B|-------------------------------------|-------------------------------------|-------------------------------------|
G|-2----2------------------------------|--------------------------2-----2----|-2----2------------------------------|
D|-2----2--------------------2----4----|-----------5--------------2-----2----|-2----2--------------------2----4----|
A|-0----0-----0----3----4--------------|-3----0---------3----0----0-----0----|-0----0-----0----3----4--------------|
E|-------------------------------------|-------------------------------------|-------------------------------------|

E|-------------------------------------|-------------------------------------|-------------------------------------|
B|-------------------------------------|-------------------------------------|-------------------------------------|
G|--------------------------2-----2----|-2----2------------------------------|--------------------------2-----2----|
D|-----------5--------------2-----2----|-2----2--------------------2----4----|-----------5--------------2-----2----|
A|-3----0---------3----0----0-----0----|-0----0-----0----3----4--------------|-3----0---------3----0----0-----0----|
E|-------------------------------------|-------------------------------------|-------------------------------------|

E|-------------------------------------|-------------------------------------|-------------------------------------|
B|-------------------------------------|-------------------------------------|-------------------------------------|
G|-2----2------------------------------|--------------------------2-----2----|-2----2------------------------------|
D|-2----2--------------------2----4----|-----------5--------------2-----2----|-2----2--------------------2----4----|
A|-0----0-----0----3----4--------------|-3----0---------3----0----0-----0----|-0----0-----0----3----4--------------|
E|-------------------------------------|-------------------------------------|-------------------------------------|

E|-------------------------------------|-------------------------------------|-------------------------------------|
B|-------------------------------------|-------------------------------------|-------------------------------------|
G|--------------------------2-----2----|-2----2------------------------------|--------------------------2-----2----|
D|-----------5--------------2-----2----|-2----2--------------------2----4----|-----------5--------------2-----2----|
A|-3----0---------3----0----0-----0----|-0----0-----0----3----4--------------|-3----0---------3----0----0-----0----|
E|-------------------------------------|-------------------------------------|-------------------------------------|

E|-------------------------------------|-------------------------------------|--------3----3-----------|
B|-------------------------------------|-------------------------------------|-3------3----3----3------|
G|-2----2------------------------------|--------------------------2-----2----|-2------0----0----2------|
D|-2----2--------------------2----4----|-----------5--------------2-----2----|-0------0----0----0------|
A|-0----0-----0----3----4--------------|-3----0---------3----0----0-----0----|-------------------------|
E|-------------------------------------|-------------------------------------|-------------------------|

E|--------------------|--------3----3-----------|------3------------3---------|-----------------------------------------|
B|-3------3------3----|-3------3----3-----3-----|-3----3------3-----3---------|-----------------------------------------|
G|-2------2------2----|-2------0----0-----2-----|-2----0------2-----0----2----|-2---------------------------------------|
D|-0------0------0----|-0------0----0-----0-----|-0----0------0-----0----2----|-2-------------------2----4--------------|
A|--------------------|-------------------------|------------------------0----|-0----0----3----4--------------3----0----|
E|--------------------|-------------------------|-----------------------------|-----------------------------------------|

E|-------------------------------------|-----------------------------------------|-------------------------------------|
B|-------------------------------------|-----------------------------------------|-------------------------------------|
G|----------------2----2----2-----2----|-2---------------------------------------|----------------2----2----2-----2----|
D|-5--------------2----2----2-----2----|-2-------------------2----4--------------|-5--------------2----2----2-----2----|
A|------3----0----0----0----0-----0----|-0----0----3----4--------------3----0----|------3----0----0----0----0-----0----|
E|-------------------------------------|-----------------------------------------|-------------------------------------|

E|--------3----3-----------|-------------3----3-----|--------3----3-----------|------3------------3---------|
B|-3------3----3----3------|-3------3----3----3-----|-3------3----3-----3-----|-3----3------3-----3---------|
G|-2------0----0----2------|-2------2----0----0-----|-2------0----0-----2-----|-2----0------2-----0---------|
D|-0------0----0----0------|-0------0----0----0-----|-0------0----0-----0-----|-0----0------0-----0---------|
A|-------------------------|------------------------|-------------------------|-----------------------------|
E|-------------------------|------------------------|-------------------------|------------------------0----|

E|-----------------------------------------|-----------------------------------------|
B|-----------------------------------------|-----------------------------------------|
G|-----------------------------------------|-----------------------------------------|
D|-----------------------------------------|--------------------------5----6---------|
A|------4----5---------4----5---------4----|-5---------4----5----5-------------------|
E|-0--------------0--------------0---------|------0-----------------------------0----|

E|-----------------------------------------|-----------------------------------------|
B|-----------------------------------------|-----------------------------------------|
G|-----------------------------------------|-----------------------------------------|
D|-----------------------------------------|--------------------------5----6---------|
A|------4----5---------4----5---------4----|-5---------4----5----5--------------0----|
E|-0--------------0--------------0---------|------0----------------------------------|

E|-----------------------------------------|-------------------------------------|-----------------------------------------|
B|-----------------------------------------|-------------------------------------|-----------------------------------------|
G|-----------------------------------------|----------------2----2----2-----2----|-2---------------------------------------|
D|---------------------2----4--------------|-5--------------2----2----2-----2----|-2-------------------2----4--------------|
A|-0----0----3----4--------------3----0----|------3----0----0----0----0-----0----|-0----0----3----4--------------3----0----|
E|-----------------------------------------|-------------------------------------|-----------------------------------------|

E|-------------------------------------|-----------------------------------------|-------------------------------------|
B|-------------------------------------|-----------------------------------------|-------------------------------------|
G|----------------2----2----2-----2----|-2---------------------------------------|----------------2----2----2-----2----|
D|-5--------------2----2----2-----2----|-2-------------------2----4--------------|-5--------------2----2----2-----2----|
A|------3----0----0----0----0-----0----|-0----0----3----4--------------3----0----|------3----0----0----0----0-----0----|
E|-------------------------------------|-----------------------------------------|-------------------------------------|

E|---------|---------|---------|--------------------|---------|-------------------|
B|---------|---------|---------|--------------------|---------|-------------------|
G|-2-------|-2-------|-2-------|-2------2------0----|-2-------|-2-------%----0----|
D|-2-------|-2-------|-2-------|-2------2------0----|-2-------|-2-------%----0----|
A|-0-------|-0-------|-0-------|-0------0-----------|-0-------|-0-----------------|
E|---------|---------|---------|--------------------|---------|-------------------|

E|---------|-----------------------------|---------|--------------------|---------|
B|---------|-------7----7----7-----------|---------|--------------------|---------|
G|-2-------|-%-----7----7----7------0----|-2-------|-2------2------0----|-2-------|
D|-2-------|-%----------------------0----|-2-------|-2------2------0----|-2-------|
A|-0-------|-----------------------------|-0-------|-0------0-----------|-0-------|
E|---------|-----------------------------|---------|--------------------|---------|

E|-------------------------------------|---------|-------------------------------------|
B|-----------7----7----7---------------|---------|-----------7----7----7---------------|
G|-2---------7---------------%----0----|-2-------|-2---------7---------------%----0----|
D|-2-------------------------%----0----|-2-------|-2-------------------------%----0----|
A|-0----0------------------------------|-0-------|-0----0------------------------------|
E|-------------------------------------|---------|-------------------------------------|

E|---------|-------------------------------------|---------|-------------------------------------|
B|---------|-----------7----7----7---------------|---------|-----------7----7----7---------------|
G|-2-------|-2---------7---------------%----0----|-2-------|-2---------7---------------%----0----|
D|-2-------|-2-------------------------%----0----|-2-------|-2-------------------------%----0----|
A|-0-------|-0----0------------------------------|-0-------|-0----0------------------------------|
E|---------|-------------------------------------|---------|-------------------------------------|

E|---------------------------------|----------------------------|--------3----3-----------|
B|-------7----7----7---------------|----------------------------|-3------3----3----3------|
G|-2-----7---------------5---------|-----------5----------------|-2------0----0----2------|
D|-2--------------------------7----|-7----7---------7----7------|-0------0----0----0------|
A|-0---------------------3----0----|-0----0----3----0----0------|-------------------------|
E|---------------------------------|----------------------------|-------------------------|

E|--------------------|--------3----3-----------|------3------------3---------|-----------------------------------------|
B|-3------3------3----|-3------3----3-----3-----|-3----3------3-----3---------|-----------------------------------------|
G|-2------2------2----|-2------0----0-----2-----|-2----0------2-----0----2----|-2---------------------------------------|
D|-0------0------0----|-0------0----0-----0-----|-0----0------0-----0----2----|-2-------------------2----4--------------|
A|--------------------|-------------------------|------------------------0----|-0----0----3----4--------------3----0----|
E|--------------------|-------------------------|-----------------------------|-----------------------------------------|

E|-------------------------------------|-----------------------------------------|-------------------------------------|
B|-------------------------------------|-----------------------------------------|-------------------------------------|
G|----------------2----2----2-----2----|-2---------------------------------------|----------------2----2----2-----2----|
D|-5--------------2----2----2-----2----|-2-------------------2----4--------------|-5--------------2----2----2-----2----|
A|------3----0----0----0----0-----0----|-0----0----3----4--------------3----0----|------3----0----0----0----0-----0----|
E|-------------------------------------|-----------------------------------------|-------------------------------------|

E|--------3----3-----------|-------------3----3-----|--------3----3-----------|------3------------3---------|
B|-3------3----3----3------|-3------3----3----3-----|-3------3----3-----3-----|-3----3------3-----3---------|
G|-2------0----0----2------|-2------2----0----0-----|-2------0----0-----2-----|-2----0------2-----0---------|
D|-0------0----0----0------|-0------0----0----0-----|-0------0----0-----0-----|-0----0------0-----0---------|
A|-------------------------|------------------------|-------------------------|-----------------------------|
E|-------------------------|------------------------|-------------------------|------------------------0----|

E|-----------------------------------------|-----------------------------------------|
B|-----------------------------------------|-----------------------------------------|
G|-----------------------------------------|-----------------------------------------|
D|-----------------------------------------|--------------------------5----6---------|
A|------4----5---------4----5---------4----|-5---------4----5----5-------------------|
E|-0--------------0--------------0---------|------0-----------------------------0----|

E|-----------------------------------------|-----------------------------------------|
B|-----------------------------------------|-----------------------------------------|
G|-----------------------------------------|-----------------------------------------|
D|-----------------------------------------|--------------------------5----6---------|
A|------4----5---------4----5---------4----|-5---------4----5----5--------------0----|
E|-0--------------0--------------0---------|------0----------------------------------|

E|----------------------------|-------------------------------------|-------------------------------------|
B|----------------------------|-------------------------------------|-------------------------------------|
G|----------------------------|-5-----7----5----5-------------------|--------------------------------5----|
D|------7--------------7------|-5-----7----5----5----7--------------|-7--------------7----7----------5----|
A|-0---------0----0-----------|---------------------------0----0----|------0----0---------------0---------|
E|----------------------------|-------------------------------------|-------------------------------------|

E|-----------------------------------------|-----------------------------|-----------------------------------------------------------------|
B|-----------------------------------------|------------------------5----|-5---5---8---5-------8---5---5---8---5-------5---8---5-------5---|
G|-5---------7----5----5----5---------7----|-7-----7----7----7-----------|-----------------7-----------------------7---------------7-------|
D|-5----5----7----5----5---------7---------|-----------------------------|-----------------------------------------------------------------|
A|-----------------------------------------|-----------------------------|-----------------------------------------------------------------|
E|-----------------------------------------|-----------------------------|-----------------------------------------------------------------|

E|-----------------5-----------------------------------------------|-------------------------------------------|
B|-8---5-------5-------5---8---5---7---5-------5-------------------|-------------------------------------7-----|
G|---------7-------------------------------8-------8---7---5-------|-7---5-------------------------------------|
D|-------------------------------------------------------------7---|---------7---0---7----5----5---------------|
A|-----------------------------------------------------------------|--------------------------------7----------|
E|-----------------------------------------------------------------|-------------------------------------------|

E|---------------------------------|-----------------------------------------|-------------------------------------|
B|-10---10----------12---12---10---|-12--------10---10---10---10---10---13---|-13----13---10---10---10---10---13---|
G|-------------%-------------------|------11---------------------------------|-------------------------------------|
D|-------------%-------------------|-----------------------------------------|-------------------------------------|
A|---------------------------------|-----------------------------------------|-------------------------------------|
E|---------------------------------|-----------------------------------------|-------------------------------------|

E|------12-------------------------|-----------------------------------------------------------------|
B|-13--------13---13---13-----10---|-13--12--10--10--13--12--10--10--13--12--10--10--13--12--10--10--|
G|---------------------------------|-----------------------------------------------------------------|
D|---------------------------------|-----------------------------------------------------------------|
A|---------------------------------|-----------------------------------------------------------------|
E|---------------------------------|-----------------------------------------------------------------|

E|--------------------------------------------------------------|----------------------10------------------|
B|-13--12--10--10--13--12--10--10--13--12--10--10--13--12--10---|-10----12---12---12--------12---12---10---|
G|--------------------------------------------------------------|------------------------------------------|
D|--------------------------------------------------------------|------------------------------------------|
A|--------------------------------------------------------------|------------------------------------------|
E|--------------------------------------------------------------|------------------------------------------|

E|-------------------------------------|-----------------------------------------|-----------------------------------------|
B|-12--------10---10---10--------------|-----------------------------------------|-----------------------------------------|
G|------11-------------------%---------|-%---------------------------------------|-----------------------------------------|
D|---------------------------%---------|-%---------------------------------------|--------------------------5----6---------|
A|-------------------------------------|------4----5---------4----5---------4----|-5---------4----5----5-------------------|
E|--------------------------------0----|----------------0--------------0---------|------0-----------------------------0----|

E|-----------------------------------------|-----------------------------------------|
B|-----------------------------------------|-----------------------------------------|
G|-----------------------------------------|-----------------------------------------|
D|-----------------------------------------|--------------------------5----6---------|
A|------4----5---------4----5---------4----|-5---------4----5----5--------------0----|
E|-0--------------0--------------0---------|------0----------------------------------|

E|-----------------------------------------|-----------------------------------------|
B|-----------------------------------------|-----------------------------------------|
G|-----------------------------------------|-----------------------------------------|
D|-----------------------------------------|--------------------------5----6---------|
A|-0----4----5---------4----5---------4----|-5---------4----5----5-------------------|
E|----------------0--------------0---------|------0-----------------------------0----|

E|-----------------------------------------|-------------------------------------|------------------------|
B|-----------------------------------------|--------------------------10----10---|-10----------12----12---|
G|-----------------------------------------|-------------------------------------|--------%---------------|
D|-----------------------------------------|-------------------------------------|--------%---------------|
A|------4----5---------4----5---------4----|-5---------4----5----5---------------|------------------------|
E|-0--------------0--------------0---------|------0------------------------------|------------------------|

E|-----------------------------|----------------------------------------------|--------------------------12---------|
B|-12---12-----12----12---12---|-12---10---14---10--------10--------10---10---|-10---10--------12---12--------12----|
G|-----------------------------|---------------------11--------11-------------|-----------%-------------------------|
D|-----------------------------|----------------------------------------------|-----------%-------------------------|
A|-----------------------------|----------------------------------------------|-------------------------------------|
E|-----------------------------|----------------------------------------------|-------------------------------------|

E|-12---------12---------12--------|------------------------------------------|-------------------------------------|
B|------12---------12---------12---|-12---12---10---12---12---12---------20---|-20---20---20----20---20---20---17---|
G|---------------------------------|------------------------------------------|-------------------------------------|
D|---------------------------------|------------------------------------------|-------------------------------------|
A|---------------------------------|------------------------------------------|-------------------------------------|
E|---------------------------------|--------------------------------10--------|-------------------------------------|

E|--------------------------------17--|-20--17------20------20--17------20--17--17---------|
B|-20---20---20---20---20-----20------|---------20------20----------20----------------20---|
G|------------------------------------|----------------------------------------------------|
D|------------------------------------|----------------------------------------------------|
A|------------------------------------|----------------------------------------------------|
E|------------------------------------|----------------------------------------------------|

E|-17--20--17--20--20--17------17---------------------------------|--------------------------------------|
B|-------------------------20------20--17--20--17-----------------|---------------------------------20---|
G|-------------------------------------------------19---20---19---|-17--------19---17----17---19---------|
D|----------------------------------------------------------------|------19------------------------------|
A|----------------------------------------------------------------|--------------------------------------|
E|----------------------------------------------------------------|--------------------------------------|

E|---------------------------------|-20-----20-----|-20-----20-----|---------------------------------|
B|-20----20---20--------20---20----|-20-----20-----|-20-----20-----|-20---------20---20---17---20----|
G|-19----19---19---%----19---19----|-19-----19-----|-19-----19-----|-19----%----19---19--------------|
D|-----------------%---------------|---------------|---------------|-------%-------------------------|
A|---------------------------------|---------------|---------------|---------------------------------|
E|---------------------------------|---------------|---------------|---------------------------------|

E|-------------------------------------|-----------------------------------------|-----------------------------------------|
B|-20---17---20---20---20--------------|-----------------------------------------|-----------------------------------------|
G|---------------------------%---------|-%---------------------------------------|-----------------------------------------|
D|---------------------------%---------|-%---------------------------------------|--------------------------5----6---------|
A|-------------------------------------|------4----5---------4----5---------4----|-5---------4----5----5-------------------|
E|--------------------------------0----|----------------0--------------0---------|------0-----------------------------0----|

E|-----------------------------------------|-----------------------------------------|
B|-----------------------------------------|-----------------------------------------|
G|-----------------------------------------|-----------------------------------------|
D|-----------------------------------------|--------------------------5----6---------|
A|------4----5---------4----5---------4----|-5---------4----5----5-------------------|
E|-0--------------0--------------0---------|------0-----------------------------0----|

E|-----------------------------------------|-----------------------------------------|
B|-----------------------------------------|-----------------------------------------|
G|-----------------------------------------|-----------------------------------------|
D|-----------------------------------------|--------------------------5----6---------|
A|------4----5---------4----5---------4----|-5---------4----5----5-------------------|
E|-0--------------0--------------0---------|------0-----------------------------0----|

E|-----------------------------------------|---------------------------------|-------------------|
B|-----------------------------------------|---------------------------------|-5-------5---------|
G|-----------------------------------------|---------------------------------|-5-------5---------|
D|-----------------------------------------|---------------------------------|-5-------5---------|
A|------4----5---------4----5---------4----|-5---------4----5----5------0----|--------------0----|
E|-0--------------0--------------0---------|------0--------------------------|-------------------|

E|-------------------|-------------------|-------------------|-------------------|-------------------|
B|-7-------7---------|-8-------8---------|-10------10--------|-10------10--------|-12------12--------|
G|-7-------7---------|-8-------8---------|-10------10--------|-11------11--------|-12------12--------|
D|-7-------7---------|-8-------8---------|-10------10--------|-11------11--------|-12------12--------|
A|--------------0----|--------------0----|--------------0----|--------------0----|--------------0----|
E|-------------------|-------------------|-------------------|-------------------|-------------------|

E|-----------------------------------------------------|--------------------------------------------|
B|-----------------------------------------------------|--------------------------------------------|
G|-7------------7------------7------------7------------|-7--------------7----7----7----7------------|
D|-4------------5------------4------------5------------|-4--------------5----5----5----5------------|
A|------0---0--------0---0--------0---0--------0---0---|------0----0------------------------0---0---|
E|-----------------------------------------------------|--------------------------------------------|

E|-----------------------------------------------------|-------------------------------------|
B|-----------------------------------------------------|-------------------------------------|
G|-7------------7------------7------------7------------|-7----7----7----2----2-----2----2----|
D|-4------------5------------4------------5------------|-4----4----6----2----2-----2----2----|
A|------0---0--------0---0--------0---0--------0---0---|----------------0----0-----0----0----|
E|-----------------------------------------------------|-------------------------------------|

E|------------------------|------------------------|---------------------------------|
B|------------------------|------------------------|---------------------------------|
G|-2------%-----0----2----|-2------%-----0----2----|-2-----0----2----2-----0----2----|
D|-2------%-----0----2----|-2------%-----0----2----|-2-----0----2----2-----0----2----|
A|-0-----------------0----|-0-----------------0----|-0----------0----0----------0----|
E|------------------------|------------------------|---------------------------------|

E|---------------------------------|---------------------------------|-----------------------------------------|
B|---------------------------------|---------------------------------|-----------------------------------------|
G|-2-----0----2----2-----0----2----|-2-----0----2----2-----0----2----|-2----2----2----2----2----2----2----2----|
D|-2-----0----2----2-----0----2----|-2-----0----2----2-----0----2----|-2----2----2----2----2----2----2----2----|
A|-0----------0----0----------0----|-0----------0----0----------0----|-0----0----0----0----0----0----0----0----|
E|---------------------------------|---------------------------------|-----------------------------------------|

E|-----------------------------------------|-----------------------------------------|
B|-----------------------------------------|-----------------------------------------|
G|-2----2----2----2----2----2----2----2----|-2----2----2----2----2----2----2----2----|
D|-2----2----2----2----2----2----2----2----|-2----2----2----2----2----2----2----2----|
A|-0----0----0----0----0----0----0----0----|-0----0----0----0----0----0----0----0----|
E|-----------------------------------------|-----------------------------------------|

E|---------|-------------------|---------|-----------------------------|---------|--------------------|
B|---------|-------------------|---------|-------7----7----7-----------|---------|--------------------|
G|-2-------|-2-------%----0----|-2-------|-%-----7----7----7------0----|-2-------|-2------2------0----|
D|-2-------|-2-------%----0----|-2-------|-%----------------------0----|-2-------|-2------2------0----|
A|-0-------|-0-----------------|-0-------|-----------------------------|-0-------|-0------0-----------|
E|---------|-------------------|---------|-----------------------------|---------|--------------------|

E|---------|-------------------------------------|---------|-------------------------------------|
B|---------|-----------7----7----7---------------|---------|-----------7----7----7---------------|
G|-2-------|-2---------7---------------%----0----|-2-------|-2---------7---------------%----0----|
D|-2-------|-2-------------------------%----0----|-2-------|-2-------------------------%----0----|
A|-0-------|-0----0------------------------------|-0-------|-0----0------------------------------|
E|---------|-------------------------------------|---------|-------------------------------------|

E|---------|-------------------------------------|---------|-------------------------------------|
B|---------|-----------7----7----7---------------|---------|-----------7----7----7---------------|
G|-2-------|-2---------7---------------%----0----|-2-------|-2---------7---------------%----0----|
D|-2-------|-2-------------------------%----0----|-2-------|-2-------------------------%----0----|
A|-0-------|-0----0------------------------------|-0-------|-0----0------------------------------|
E|---------|-------------------------------------|---------|-------------------------------------|

E|---------------------------------|----------------------------|--------3----3-----------|
B|-------7----7----7---------------|----------------------------|-3------3----3----3------|
G|-2-----7---------------5---------|-----------5----------------|-2------0----0----2------|
D|-2--------------------------7----|-7----7---------7----7------|-0------0----0----0------|
A|-0---------------------3----0----|-0----0----3----0----0------|-------------------------|
E|---------------------------------|----------------------------|-------------------------|

E|--------------------|--------3----3-----------|------3------------3---------|-----------------------------------------|
B|-3------3------3----|-3------3----3-----3-----|-3----3------3-----3---------|-----------------------------------------|
G|-2------2------2----|-2------0----0-----2-----|-2----0------2-----0----2----|-2---------------------------------------|
D|-0------0------0----|-0------0----0-----0-----|-0----0------0-----0----2----|-2-------------------2----4--------------|
A|--------------------|-------------------------|------------------------0----|-0----0----3----4--------------3----0----|
E|--------------------|-------------------------|-----------------------------|-----------------------------------------|

E|-------------------------------------|-----------------------------------------|-------------------------------------|
B|-------------------------------------|-----------------------------------------|-------------------------------------|
G|----------------2----2----2-----2----|-2---------------------------------------|----------------2----2----2-----2----|
D|-5--------------2----2----2-----2----|-2-------------------2----4--------------|-5--------------2----2----2-----2----|
A|------3----0----0----0----0-----0----|-0----0----3----4--------------3----0----|------3----0----0----0----0-----0----|
E|-------------------------------------|-----------------------------------------|-------------------------------------|

E|--------3----3-----------|-------------3----3-----|--------3----3-----------|------3------------3---------|
B|-3------3----3----3------|-3------3----3----3-----|-3------3----3-----3-----|-3----3------3-----3---------|
G|-2------0----0----2------|-2------2----0----0-----|-2------0----0-----2-----|-2----0------2-----0---------|
D|-0------0----0----0------|-0------0----0----0-----|-0------0----0-----0-----|-0----0------0-----0---------|
A|-------------------------|------------------------|-------------------------|-----------------------------|
E|-------------------------|------------------------|-------------------------|------------------------0----|

E|-----------------------------------------|-----------------------------------------|
B|-----------------------------------------|-----------------------------------------|
G|-----------------------------------------|-----------------------------------------|
D|-----------------------------------------|--------------------------5----6---------|
A|------4----5---------4----5---------4----|-5---------4----5----5-------------------|
E|-0--------------0--------------0---------|------0-----------------------------0----|

E|-----------------------------------------|-----------------------------------------|
B|-----------------------------------------|-----------------------------------------|
G|-----------------------------------------|-----------------------------------------|
D|-----------------------------------------|--------------------------5----6---------|
A|------4----5---------4----5---------4----|-5---------4----5----5--------------0----|
E|-0--------------0--------------0---------|------0----------------------------------|

E|-----------------------------------------|-------------------------------------|-----------------------------------------|
B|-----------------------------------------|-------------------------------------|-----------------------------------------|
G|-2---------------------------------------|----------------2----2----2-----2----|-2---------------------------------------|
D|-2-------------------2----4--------------|-5--------------2----2----2-----2----|-2-------------------2----4--------------|
A|-0----0----3----4--------------3----0----|------3----0----0----0----0-----0----|-0----0----3----4--------------3----0----|
E|-----------------------------------------|-------------------------------------|-----------------------------------------|

E|-------------------------------------|-----------------------------------------|-------------------------------------|
B|-------------------------------------|-----------------------------------------|-------------------------------------|
G|----------------2----2----2-----2----|-2---------------------------------------|----------------2----2----2-----2----|
D|-5--------------2----2----2-----2----|-2-------------------2----4--------------|-5--------------2----2----2-----2----|
A|------3----0----0----0----0-----0----|-0----0----3----4--------------3----0----|------3----0----0----0----0-----0----|
E|-------------------------------------|-----------------------------------------|-------------------------------------|

E|----------------------------------|-----------------------------------------------------|
B|----------------------------------|-----------------------------------------------------|
G|-2------%------------7------------|-7------------7------------7------------7------------|
D|-2------%------------4------------|-5------------4------------5------------4------------|
A|-0-----------0---0--------0---0---|------0---0--------0---0--------0---0--------0---0---|
E|----------------------------------|-----------------------------------------------------|

E|---------------------------|-----------------------------------------------------|
B|---------------------------|-----------------------------------------------------|
G|-7------%-----%------------|-7------------7------------7------------7------------|
D|-5------%-----%------------|-4------------5------------4------------5------------|
A|-0-----------------0---0---|------0---0--------0---0--------0---0--------0---0---|
E|---------------------------|-----------------------------------------------------|

E|---------|-5-------|---------------|---------|---------|---------|---------|---------|
B|-3-------|-3-------|---------------|---------|---------|---------|---------|---------|
G|-2-------|-2-------|-2------%------|-%-------|-%-------|-%-------|-%-------|-%-------|
D|-4-------|-2-------|-2------%------|-%-------|-%-------|-%-------|-%-------|-%-------|
A|-0-------|-0-------|-0-------------|---------|---------|---------|---------|---------|
E|---------|---------|---------------|---------|---------|---------|---------|---------|

E|---------|---------|---------|
B|---------|---------|---------|
G|-%-------|-%-------|-%-------|
D|-%-------|-%-------|-%-------|
A|---------|---------|---------|
E|---------|---------|---------|
ACDC - Riff Raff
ACDC - Riff Raff.gp4