ACDC - Rock And Roll Ain 't Noise Pollution

AC-DC



Title: Rock And Roll Ain't Noise Pollution
Album: 
Artist: AC/DC
Author: 

Track 1: Guitar 1
E|--------0-------------------|-----------------------------|---------------------------------|
B|--------0----2---------3----|-3-----2-----2-----3---------|------------------2---------3----|
G|-%------1----2----%----4----|-4-----2-----2-----4---------|-------------1----2----%----4----|
D|-%----------------%---------|-----------------------------|------2----------------%---------|
A|----------------------------|-------0-----0-----0---------|------2--------------------------|
E|----------------------------|------------------------3----|-3----0--------------------------|

E|-----------------------------|----------------------------|-----------------------------|
B|-3-----2-----2---------------|--------0----2---------3----|-3-----2-----2-----3---------|
G|-4-----2-----2----------9----|-9------1----2----%----4----|-4-----2-----2-----4---------|
D|------------------------9----|-9----------------%---------|-----------------------------|
A|-------0-----0----------7----|-7--------------------------|-------0-----0-----0---------|
E|-------------------3----0----|-0--------------------------|------------------------3----|

E|---------------------------------|-----------------------------|----------------------------|
B|------------------2---------3----|-3-----2-----2---------------|--------0----2---------3----|
G|-------------1----2----%----4----|-4-----2-----2----------9----|-9------1----2----%----4----|
D|------2----------------%---------|------------------------9----|-9----------------%---------|
A|------2--------------------------|-------0-----0----------7----|-7--------------------------|
E|-3----0--------------------------|-------------------3----0----|-0--------------------------|

E|-----------------------------|---------------------------------|-----------------------------|
B|-3-----2-----2-----3---------|------------------2---------3----|-3-----2-----2---------------|
G|-4-----2-----2-----4---------|-------------1----2----%----4----|-4-----2-----2----------9----|
D|-----------------------------|------2----------------%---------|------------------------9----|
A|-------0-----0-----0---------|------2--------------------------|-------0-----0----------7----|
E|------------------------3----|-3----0--------------------------|-------------------3----0----|

E|----------------------------|-----------------------------|---------------------------------|
B|--------0----2---------3----|-3-----2-----2-----3---------|------------------2---------3----|
G|-9------1----2----%----4----|-4-----2-----2-----4---------|-------------1----2----%----4----|
D|-9----------------%---------|-----------------------------|------2----------------%---------|
A|-7--------------------------|-------0-----0-----0---------|------2--------------------------|
E|-0--------------------------|------------------------3----|-3----0--------------------------|

E|-----------------------------|---------|----------------------------|-----------------------------|
B|-3-----2-----2---------------|---------|--------0----2---------3----|-3-----2-----2-----3---------|
G|-4-----2-----2----------9----|-9-------|-9------1----2----%----4----|-4-----2-----2-----4---------|
D|------------------------9----|-9-------|-9------2----2----%---------|-------2-----2-----2---------|
A|-------0-----0----------7----|-7-------|-7------2----0--------------|-----------------------------|
E|-------------------3----0----|-0-------|-0------0-------------------|------------------------3----|

E|---------------------------------|-----------------------------|---------------------------------|
B|-------------0----2---------3----|-3-----2-----2---------------|-------------0----2---------3----|
G|-------------1----2----%----4----|-4-----2-----2----------9----|-9-----%-----1----2----%----4----|
D|-------------2----2----%---------|-------2-----2----------9----|-9-----%-----2----2----%---------|
A|------2------2----0---------0----|-0-----0-----0----------7----|-7-----------2----0--------------|
E|-3----0------0-------------------|-------------------3----0----|-0-----------0-------------------|

E|-----------------------------|---------------------------------|-----------------------------|
B|-3-----2-----2-----3---------|-------------0----2---------3----|-3-----2-----2---------------|
G|-4-----2-----2-----4---------|-------------1----2----%----4----|-4-----2-----2----------9----|
D|-------2-----2-----2---------|-------------2----2----%---------|-------2-----2----------9----|
A|-------0-----0-----0---------|------2------2----0--------------|-------0-----0----------7----|
E|------------------------3----|-3----0------0-------------------|-------------------3----0----|

E|----------------------|-----------------------------|-----------------------------------|
B|----------------------|------------------------2----|-2-----3-----2---------------------|
G|-9-------9------------|------------------------2----|-2-----2-----2-----4-------4---4---|
D|-9-------9----0---0---|------------------------2----|-2-----4-----2-----4---6---6---6---|
A|-7-------7----0---0---|-2-----4-----2----------0----|-0-----0-----0---------------------|
E|-0-------0----0---0---|-0-----0-----0-----3---------|-----------------------------------|

E|-----------------------------|---------------------------------|-----------------------------|
B|------------------------2----|-2---------------------0---------|------------------------2----|
G|------------------------2----|-2---------2-----2-----0----4----|------------------------2----|
D|------------------------2----|-2----2----4-----2----------6----|------------------------2----|
A|-2-----4-----2----------0----|-0----0----0-----0---------------|-2-----4-----2----------0----|
E|-0-----0-----0-----3---------|---------------------------------|-0-----0-----0-----3---------|

E|---------------------------------------|-----------------------------|-----------------------------------------|
B|-2---------3-----2---------------------|------------------------2----|-2----2--------------2----2----2---------|
G|-2---------2-----2-----4-------4---4---|------------------------2----|-2----2----2---------2----2----2---------|
D|-2---------4-----2-----4---6---6---6---|------------------------2----|-2----2----4---------2----2----2---------|
A|-0----0----0-----0---------------------|-2-----4-----2----------0----|-0----0----0----0----0----0----0----0----|
E|---------------------------------------|-0-----0-----0-----3---------|------------------------------------0----|

E|-----------------------------|--------------------------------|---------------------------------|
B|-----------------------------|--------------------------------|----------------------------2----|
G|-9----------7----7-----------|-4----------9----9--------------|-9----------7----7----------2----|
D|-9-----9----7----7-----------|-4----------9----9------0---0---|-9-----0----7----7-----0----2----|
A|-7-----9----5----5------0----|-2----------7----7------0---0---|-7-----0----5----5-----0----0----|
E|-----------------------------|-------0----------------0---0---|---------------------------------|

E|-------------------------------------|-----------------------------------------|-----------------------------|
B|-2-----2----2----2----2----2----2----|-2----2----2----2---------2---------3----|-3-----2-----2-----3---------|
G|-2-----2----2----2----2----2----2----|-2----2----2----2---------2----%----4----|-4-----2-----2-----4---------|
D|-2-----2----2----2----2----2----2----|-2----2----2----2---------2----%---------|-------2-----2-----2---------|
A|-0-----0----0----0----0----0----0----|-0----0----0----0----2----0--------------|-----------------------------|
E|-------------------------------------|---------------------0-------------------|------------------------3----|

E|---------------------------------|-----------------------------|---------------------------------|
B|-------------0----2---------3----|-3-----2-----2---------------|-------------0----2---------3----|
G|-------------1----2----%----4----|-4-----2-----2----------9----|-9-----%-----1----2----%----4----|
D|-------------2----2----%---------|-------2-----2----------9----|-9-----%-----2----2----%---------|
A|------2------2----0---------0----|-0-----0-----0----------7----|-7-----------2----0--------------|
E|-3----0------0-------------------|-------------------3----0----|-0-----------0-------------------|

E|-----------------------------|---------------------------------|-----------------------------|
B|-3-----2-----2-----3---------|-------------0----2---------3----|-3-----2-----2---------------|
G|-4-----2-----2-----4---------|-------------1----2----%----4----|-4-----2-----2----------9----|
D|-------2-----2-----2---------|-------------2----2----%---------|-------2-----2----------9----|
A|-------0-----0-----0---------|------2------2----0--------------|-------0-----0----------7----|
E|------------------------3----|-3----0------0-------------------|-------------------3----0----|

E|----------------------|-----------------------------|-----------------------------------|
B|----------------------|------------------------2----|-2-----3-----2---------------------|
G|-9-------9------------|------------------------2----|-2-----2-----2-----4-------4---4---|
D|-9-------9----0---0---|------------------------2----|-2-----4-----2-----4---6---6---6---|
A|-7-------7----0---0---|-2-----4-----2----------0----|-0-----0-----0---------------------|
E|-0-------0----0---0---|-0-----0-----0-----3---------|-----------------------------------|

E|-----------------------------|---------------------------------|-----------------------------|
B|------------------------2----|-2---------------------0---------|------------------------2----|
G|------------------------2----|-2---------2-----2-----0----4----|------------------------2----|
D|------------------------2----|-2----2----4-----2----------6----|------------------------2----|
A|-2-----4-----2----------0----|-0----0----0-----0---------------|-2-----4-----2----------0----|
E|-0-----0-----0-----3---------|---------------------------------|-0-----0-----0-----3---------|

E|---------------------------------------|-----------------------------|-----------------------------------------|
B|-2---------3-----2---------------------|------------------------2----|-2----2--------------2----2----2---------|
G|-2---------2-----2-----4-------4---4---|------------------------2----|-2----2----2---------2----2----2---------|
D|-2---------4-----2-----4---6---6---6---|------------------------2----|-2----2----4---------2----2----2---------|
A|-0----0----0-----0---------------------|-2-----4-----2----------0----|-0----0----0----0----0----0----0----0----|
E|---------------------------------------|-0-----0-----0-----3---------|------------------------------------0----|

E|-----------------------------|--------------------------------|---------------------------------|
B|-----------------------------|--------------------------------|----------------------------2----|
G|-9----------7----7-----------|-4----------9----9--------------|-9----------7----7----------2----|
D|-9-----9----7----7-----------|-4----------9----9------0---0---|-9-----0----7----7-----0----2----|
A|-7-----9----5----5------0----|-2----------7----7------0---0---|-7-----0----5----5-----0----0----|
E|-----------------------------|-------0----------------0---0---|---------------------------------|

E|-------------------------------------|-----------------------------------------|-----------------------------|
B|-2-----2----2----2----2----2----2----|-2----2----2----2---------2---------3----|-3-----2-----2-----3---------|
G|-2-----2----2----2----2----2----2----|-2----2----2----2---------2----%----4----|-4-----2-----2-----4---------|
D|-2-----2----2----2----2----2----2----|-2----2----2----2---------2----%---------|-------2-----2-----2---------|
A|-0-----0----0----0----0----0----0----|-0----0----0----0----2----0--------------|-----------------------------|
E|-------------------------------------|---------------------0-------------------|------------------------3----|

E|---------------------------------|-----------------------------|---------------------------------|
B|-------------0----2---------3----|-3-----2-----2---------------|-------------0----2---------3----|
G|-------------1----2----%----4----|-4-----2-----2----------9----|-9-----%-----1----2----%----4----|
D|-------------2----2----%---------|-------2-----2----------9----|-9-----%-----2----2----%---------|
A|------2------2----0---------0----|-0-----0-----0----------7----|-7-----------2----0--------------|
E|-3----0------0-------------------|-------------------3----0----|-0-----------0-------------------|

E|-----------------------------|---------------------------------|-----------------------------|
B|-3-----2-----2-----3---------|-------------0----2---------3----|-3-----2-----2---------------|
G|-4-----2-----2-----4---------|-------------1----2----%----4----|-4-----2-----2----------9----|
D|-------2-----2-----2---------|-------------2----2----%----2----|-2-----2-----2----------9----|
A|-------0-----0-----0---------|------2------2----0--------------|-------0-----0----------7----|
E|------------------------3----|-3----0------0-------------------|-------------------3----0----|

E|---------|---------------------------------|--------------------------------------------|
B|---------|----------------------------2----|-2------------------------------------------|
G|-%-------|----------------------------2----|-2------------------------------------------|
D|-%-------|----------------------------2----|-2----2----4---------2----2----4------------|
A|---------|-2-----4---------2----------0----|-0----0----0----0----0----0----0----0---0---|
E|---------|-0-----0----0----0-----3---------|------------------------------------0---0---|

E|---------------------------------|--------------------------------------------|---------------------------------|
B|----------------------------2----|-2------------------------------------------|----------------------------2----|
G|----------------------------2----|-2------------------------------------------|----------------------------2----|
D|----------------------------2----|-2----2----4---------2----2----4------------|----------------------------2----|
A|-2-----4---------2----------0----|-0----0----0----0----0----0----0----0---0---|-2-----4---------2----------0----|
E|-0-----0----0----0-----3---------|------------------------------------0---0---|-0-----0----0----0-----3---------|

E|--------------------------------------------|---------------------------------|--------------------------------------------|
B|-2------------------------------------------|----------------------------2----|-2------------------------------------------|
G|-2------------------------------------------|----------------------------2----|-2------------------------------------------|
D|-2----2----4---------2----2----4------------|----------------------------2----|-2----2----4---------2----2----4------------|
A|-0----0----0----0----0----0----0----0---0---|-2-----4---------2----------0----|-0----0----0----0----0----0----0----0---0---|
E|------------------------------------0---0---|-0-----0----0----0-----3---------|------------------------------------0---0---|

E|-----------------------------|--------------------------------|---------------------------------|
B|-----------------------------|--------------------------------|----------------------------2----|
G|-9----------7----7-----------|-4----------9----9--------------|-9----------7----7----------2----|
D|-9-----9----7----7-----------|-4----------9----9------0---0---|-9-----0----7----7-----0----2----|
A|-7-----9----5----5------0----|-2----------7----7------0---0---|-7-----0----5----5-----0----0----|
E|-----------------------------|-------0----------------0---0---|---------------------------------|

E|-------------------------------------|-----------------------------------------|-----------------------------|
B|-2-----2----2----2----2----2----2----|-2----2----2----2---------2---------3----|-3-----2-----2-----3---------|
G|-2-----2----2----2----2----2----2----|-2----2----2----2---------2----%----4----|-4-----2-----2-----4---------|
D|-2-----2----2----2----2----2----2----|-2----2----2----2---------2----%---------|-------2-----2-----2---------|
A|-0-----0----0----0----0----0----0----|-0----0----0----0----2----0--------------|-----------------------------|
E|-------------------------------------|---------------------0-------------------|------------------------3----|

E|---------------------------------|-----------------------------|---------------------------------|
B|-------------0----2---------3----|-3-----2-----2---------------|-------------0----2---------3----|
G|-------------1----2----%----4----|-4-----2-----2----------9----|-9-----%-----1----2----%----4----|
D|-------------2----2----%---------|-------2-----2----------9----|-9-----%-----2----2----%---------|
A|------2------2----0---------0----|-0-----0-----0----------7----|-7-----------2----0--------------|
E|-3----0------0-------------------|-------------------3----0----|-0-----------0-------------------|

E|-----------------------------|---------------------------------|-------------------------------------|
B|-3-----2-----2-----3---------|-------------0----2---------3----|-3---------2-----2-------------------|
G|-4-----2-----2-----4---------|-------------1----2----%----4----|-4---------2-----2---------0---------|
D|-------2-----2-----2---------|-------------2----2----%---------|-2----2----2-----2---------0----2----|
A|-------0-----0-----0---------|------2------2----0--------------|------0----0-----0----0---------2----|
E|------------------------3----|-3----0------0-------------------|----------------------0----3----0----|

E|---------------------------------------|-------------------------------------|-------------------------------|
B|---------------------------------------|-3-----2---------2---------3----0----|-0-----------------------------|
G|---------------------------------2-----|-4-----2---------2---------4----0----|-0-----------------------2-----|
D|-2-------------------2-----2-----2-----|-2-----2---------2---------2----0----|-0----2------2-----2-----2-----|
A|-2----2----2----2----2-----2-----2-----|-0-----0----0----0----0----0---------|------2------2-----2-----0-----|
E|-0----0----0----0----0-----0-----------|----------------------0---------3----|-3----0------0-----0-----------|

E|-------------------------------------|--------------------------|-------------------------------------|
B|-3-----2---------2-------------------|--------------------------|-3-----2---------2---------3---------|
G|-4-----2---------2-------------------|--------------------2-----|-4-----2---------2---------4----0----|
D|-2-----2---------2--------------2----|-2------2-----2-----2-----|-2-----2---------2---------2----0----|
A|-0-----0----0----0----0---------2----|-2------2-----2-----0-----|-0-----0----0----0---------0---------|
E|----------------------0----3----0----|-0------0-----0-----------|----------------------0---------3----|

E|-------------------------------|---------------|--------------------------|---------------|
B|-------------0-----0-----------|-3------2------|-2------2-----2-----------|---------------|
G|-0-----------1-----1-----2-----|-2------2------|-2------2-----2-----------|---------------|
D|-0----2------2-----2-----2-----|-0------2------|-2------2-----2-----------|---------------|
A|------2------2-----2-----0-----|-0------0------|-0------0-----0-----------|---------------|
E|-3----0------0-----0-----------|---------------|--------------------3-----|-3------3------|

E|--------------------|
B|--------------------|
G|--------------%-----|
D|--------2-----%-----|
A|--------2-----------|
E|-3------0-----------|
ACDC - Rock And Roll Ain 't Noise Pollution
ACDC - Rock And Roll Ain_'t Noise Pollution.gp3