ACDC - Rock and Roll Damnation

AC-DC



Title: Rock and Roll Damnation
Album: 
Artist: AC/DC
Author: 

Track 1: bass
G|-------------------|-----------------------------------------|-----------------------------------------|
D|-%---%-------%-----|-----------------------------------------|-----------------------------------------|
A|-%---%-------%-----|-0----0----0----0----0----0----0----0----|-0----0----0----0----0----0----0----0----|
E|-------------------|-----------------------------------------|-----------------------------------------|

G|-----------------------------------------|-----------------------------------------|
D|-----------------------------------------|-----------------------------------------|
A|-0----0----0----0----0----0----0----0----|-0----0----0----0----0----0----0----0----|
E|-----------------------------------------|-----------------------------------------|

G|-----------------------------------------|-----------------------------------------|
D|-----------------------------------------|-----------------------------------------|
A|-0----0----0----0----0----0----0----0----|-0----0----0----0----0----0----0----0----|
E|-----------------------------------------|-----------------------------------------|

G|-----------------------------------------|-----------------------------------------|
D|-----------------------------------------|-----------------------------------------|
A|-0----0----0----0----0----0----0----0----|-0----0----0----0----0----0----0----0----|
E|-----------------------------------------|-----------------------------------------|

G|-----------------------------------------|-----------------------------------------|
D|-----------------------------------------|-----------------------------------------|
A|-0----0----0----0----0----0----0----0----|-0----0----0----0----0----0----0----0----|
E|-----------------------------------------|-----------------------------------------|

G|-----------------------------------------|-----------------------------------------|
D|-----------------------------------------|-----------------------------------------|
A|-0----0----0----0----0----0----0----0----|-0----0----0----0----0----0----0----0----|
E|-----------------------------------------|-----------------------------------------|

G|-----------------------------------------|-----------------------------------------|
D|-----------------------------------------|-----------------------------------------|
A|-0----0----0----0----0----0----0----0----|-0----0----0----0----0----0----0----0----|
E|-----------------------------------------|-----------------------------------------|

G|-----------------------------------------|-----------------------------------------|
D|-----------------------------------------|-----------------------------------------|
A|-0----0----0----0----0----0----0----0----|-0----0----0----0----0----0----0----0----|
E|-----------------------------------------|-----------------------------------------|

G|-----------------------------------------|-----------------------------------------|
D|-----------------------------------------|-----------------------------------------|
A|-0----0----0----0----0----0----0----0----|-0----0----0----0----0----0----0----0----|
E|-----------------------------------------|-----------------------------------------|

G|-----------------------------------------|-----------------------------------------|
D|-----------------------------------------|-----------------------------------------|
A|-0----0----0----0----0----0----0----0----|-0----0----0----0----0----0----0----0----|
E|-----------------------------------------|-----------------------------------------|

G|-----------------------------------------|-----------------------------------------|
D|-----------------------------------------|-----------------------------------------|
A|-0----0----0----0----0----0----0----0----|-0----0----0----0----0----0----0----0----|
E|-----------------------------------------|-----------------------------------------|

G|-----------------------------------------|-----------------------------------------|
D|-----------------------------------------|-----------------------------------------|
A|-0----0----0----0----0----0----0----0----|-0----0----0----0----0----0----0----0----|
E|-----------------------------------------|-----------------------------------------|

G|-----------------------------------------|-----------------------------------------|
D|-----------------------------------------|-----------------------------------------|
A|-0----0----0----0----0----0----0----0----|-0----0----0----0----0----0----0----0----|
E|-----------------------------------------|-----------------------------------------|

G|-----------------------------------------|-----------------------------------------|
D|-----------------------------------------|-----------------------------------------|
A|-0----0----0----0----0----0----0----0----|-0----0----0----0----0----0----0----0----|
E|-----------------------------------------|-----------------------------------------|

G|-----------------------------------------|-----------------------------------------|
D|-----------------------------------------|-----------------------------------------|
A|-0----0----0----0----0----0----0----0----|-0----0----0----0----0----0----0----0----|
E|-----------------------------------------|-----------------------------------------|

G|-----------------------------------------|-----------------------------------------|
D|-----------------------------------------|-----------------------------------------|
A|-0----0----0----0----0----0----0----0----|-0----0----0----0----0----0----0----0----|
E|-----------------------------------------|-----------------------------------------|

G|-0------------------|-----------------------------------------|-0------------------|
D|--------4-----------|-----------------------------------------|--------4-----------|
A|---------------0----|-0----0----0----0----0----0----0----0----|---------------0----|
E|--------------------|-----------------------------------------|--------------------|

G|-----------------------------------------|-0------------------|-----------------------------------------|
D|-----------------------------------------|--------4-----------|-----------------------------------------|
A|-0----0----0----0----0----0----0----0----|---------------0----|-0----0----0----0----0----0----0----0----|
E|-----------------------------------------|--------------------|-----------------------------------------|

G|-----------------------------------------|-----------------------------------------|
D|-0----0----0----0----0----0----0----2----|-2----2----2----2----2----2----2----2----|
A|-----------------------------------------|-----------------------------------------|
E|-----------------------------------------|-----------------------------------------|

G|-----------------------------------------|-----------------------------------------|
D|-----------------------------------------|-----------------------------------------|
A|-0----0----0----0----0----0----0----0----|-0----0----0----0----0----0----0----0----|
E|-----------------------------------------|-----------------------------------------|

G|-----------------------------------------|-----------------------------------------|
D|-----------------------------------------|-----------------------------------------|
A|-0----0----0----0----0----0----0----0----|-0----0----0----0----0----0----0----0----|
E|-----------------------------------------|-----------------------------------------|

G|-----------------------------------------|-----------------------------------------|
D|-----------------------------------------|-----------------------------------------|
A|-0----0----0----0----0----0----0----0----|-0----0----0----0----0----0----0----0----|
E|-----------------------------------------|-----------------------------------------|

G|-----------------------------------------|-----------------------------------------|
D|-----------------------------------------|-----------------------------------------|
A|-0----0----0----0----0----0----0----0----|-0----0----0----0----0----0----0----0----|
E|-----------------------------------------|-----------------------------------------|

G|-----------------------------------------|-----------------------------------------|
D|-----------------------------------------|-----------------------------------------|
A|-0----0----0----0----0----0----0----0----|-0----0----0----0----0----0----0----0----|
E|-----------------------------------------|-----------------------------------------|

G|-----------------------------------------|-----------------------------------------|
D|-----------------------------------------|-----------------------------------------|
A|-0----0----0----0----0----0----0----0----|-0----0----0----0----0----0----0----0----|
E|-----------------------------------------|-----------------------------------------|

G|-----------------------------------------|-----------------------------------------|
D|-----------------------------------------|-----------------------------------------|
A|-0----0----0----0----0----0----0----0----|-0----0----0----0----0----0----0----0----|
E|-----------------------------------------|-----------------------------------------|

G|-----------------------------------------|-----------------------------------------|
D|-----------------------------------------|-----------------------------------------|
A|-0----0----0----0----0----0----0----0----|-0----0----0----0----0----0----0----0----|
E|-----------------------------------------|-----------------------------------------|

G|-----------------------------------------|-----------------------------------------|
D|-----------------------------------------|-----------------------------------------|
A|-0----0----0----0----0----0----0----0----|-0----0----0----0----0----0----0----0----|
E|-----------------------------------------|-----------------------------------------|

G|-----------------------------------------|-----------------------------------------|
D|-----------------------------------------|-----------------------------------------|
A|-0----0----0----0----0----0----0----0----|-0----0----0----0----0----0----0----0----|
E|-----------------------------------------|-----------------------------------------|

G|-0------------------|-----------------------------------------|-0------------------|
D|--------4-----------|-----------------------------------------|--------4-----------|
A|---------------0----|-0----0----0----0----0----0----0----0----|---------------0----|
E|--------------------|-----------------------------------------|--------------------|

G|-----------------------------------------|-0------------------|-----------------------------------------|
D|-----------------------------------------|--------4-----------|-----------------------------------------|
A|-0----0----0----0----0----0----0----0----|---------------0----|-0----0----0----0----0----0----0----0----|
E|-----------------------------------------|--------------------|-----------------------------------------|

G|-----------------------------------------|-----------------------------------------|
D|-0----0----0----0----0----0----0----2----|-2----2----2----2----2----2----2----2----|
A|-----------------------------------------|-----------------------------------------|
E|-----------------------------------------|-----------------------------------------|

G|-----------------------------------------------------------------|-----------------------------------------------------------------|
D|-----%-------%-------%-------%-------%-------%-------%-------%---|-----%-------%-------%-------%-------%-------%-------%-------%---|
A|-0---%---0---%---0---%---0---%---0---%---0---%---0---%---0---%---|-0---%---0---%---0---%---0---%---0---%---0---%---0---%---0---%---|
E|-----------------------------------------------------------------|-----------------------------------------------------------------|

G|-----------------------------------------------------------------|-----------------------------------------------------------------|
D|-----%-------%-------%-------%-------%-------%-------%-------%---|-----%-------%-------%-------%-------%-------%-------%-------%---|
A|-0---%---0---%---0---%---0---%---0---%---0---%---0---%---0---%---|-0---%---0---%---0---%---0---%---0---%---0---%---0---%---0---%---|
E|-----------------------------------------------------------------|-----------------------------------------------------------------|

G|-----------------------------------------------------------------|-----------------------------------------------------------------|
D|-----%-------%-------%-------%-------%-------%-------%-------%---|-----%-------%-------%-------%-------%-------%-------%-------%---|
A|-0---%---0---%---0---%---0---%---0---%---0---%---0---%---0---%---|-0---%---0---%---0---%---0---%---0---%---0---%---0---%---0---%---|
E|-----------------------------------------------------------------|-----------------------------------------------------------------|

G|-----------------------------------------------------------------|-----------------------------------------------------------------|
D|-----%-------%-------%-------%-------%-------%-------%-------%---|-----%-------%-------%-------%-------%-------%-------%-------%---|
A|-0---%---0---%---0---%---0---%---0---%---0---%---0---%---0---%---|-0---%---0---%---0---%---0---%---0---%---0---%---0---%---0---%---|
E|-----------------------------------------------------------------|-----------------------------------------------------------------|

G|-----------------------------------------------------------------|-----------------------------------------------------------------|
D|-----%-------%-------%-------%-------%-------%-------%-------%---|-----%-------%-------%-------%-------%-------%-------%-------%---|
A|-0---%---0---%---0---%---0---%---0---%---0---%---0---%---0---%---|-0---%---0---%---0---%---0---%---0---%---0---%---0---%---0---%---|
E|-----------------------------------------------------------------|-----------------------------------------------------------------|

G|-----------------------------------------------------------------|-----------------------------------------------------------------|
D|-----%-------%-------%-------%-------%-------%-------%-------%---|-----%-------%-------%-------%-------%-------%-------%-------%---|
A|-0---%---0---%---0---%---0---%---0---%---0---%---0---%---0---%---|-0---%---0---%---0---%---0---%---0---%---0---%---0---%---0---%---|
E|-----------------------------------------------------------------|-----------------------------------------------------------------|

G|-----------------------------------------------------------------|-----------------------------------------------------------------|
D|-----%-------%-------%-------%-------%-------%-------%-------%---|-----%-------%-------%-------%-------%-------%-------%-------%---|
A|-0---%---0---%---0---%---0---%---0---%---0---%---0---%---0---%---|-0---%---0---%---0---%---0---%---0---%---0---%---0---%---0---%---|
E|-----------------------------------------------------------------|-----------------------------------------------------------------|

G|-2----2----2----2----2----2----2----2----|-2----2----2----2----2----2----2----2----|
D|-----------------------------------------|-----------------------------------------|
A|-----------------------------------------|-----------------------------------------|
E|-----------------------------------------|-----------------------------------------|

G|-0------------------|-----------------------------------------|-0------------------|
D|--------4-----------|-----------------------------------------|--------4-----------|
A|---------------0----|-0----0----0----0----0----0----0----0----|---------------0----|
E|--------------------|-----------------------------------------|--------------------|

G|-----------------------------------------|-0------------------|-----------------------------------------|
D|-----------------------------------------|--------4-----------|-----------------------------------------|
A|-0----0----0----0----0----0----0----0----|---------------0----|-0----0----0----0----0----0----0----0----|
E|-----------------------------------------|--------------------|-----------------------------------------|

G|-0----0----0----0----0----0----0----2----|-2----2----2----2----2----2----2----2----|
D|-----------------------------------------|-----------------------------------------|
A|-----------------------------------------|-----------------------------------------|
E|-----------------------------------------|-----------------------------------------|

G|-----------------------------------------|-----------------------------------------|
D|-----------------------------------------|-----------------------------------------|
A|-0----0----0----0----0----0----0----0----|-0----0----0----0----0----0----0----0----|
E|-----------------------------------------|-----------------------------------------|

G|-----------------------------------------|-----------------------------------------|
D|-----------------------------------------|-----------------------------------------|
A|-0----0----0----0----0----0----0----0----|-0----0----0----0----0----0----0----0----|
E|-----------------------------------------|-----------------------------------------|

G|-----------------------------------------|-----------------------------------------|
D|-----------------------------------------|-----------------------------------------|
A|-0----0----0----0----0----0----0----0----|-0----0----0----0----0----0----0----0----|
E|-----------------------------------------|-----------------------------------------|

G|-----------------------------------------|-----------------------------------------|
D|-----------------------------------------|-----------------------------------------|
A|-0----0----0----0----0----0----0----0----|-0----0----0----0----0----0----0----0----|
E|-----------------------------------------|-----------------------------------------|

G|-----------------------------------------|-----------------------------------------|
D|-----------------------------------------|-----------------------------------------|
A|-0----0----0----0----0----0----0----0----|-0----0----0----0----0----0----0----0----|
E|-----------------------------------------|-----------------------------------------|

G|-----------------------------------------|-----------------------------------------|
D|-----------------------------------------|-----------------------------------------|
A|-0----0----0----0----0----0----0----0----|-0----0----0----0----0----0----0----0----|
E|-----------------------------------------|-----------------------------------------|

G|-----------------------------------------|-----------------------------------------|
D|-----------------------------------------|-----------------------------------------|
A|-0----0----0----0----0----0----0----0----|-0----0----0----0----0----0----0----0----|
E|-----------------------------------------|-----------------------------------------|

G|-----------------------------------------|-----------------------------------------|
D|-----------------------------------------|-----------------------------------------|
A|-0----0----0----0----0----0----0----0----|-0----0----0----0----0----0----0----0----|
E|-----------------------------------------|-----------------------------------------|

G|-----------------------------------------|-----------------------------------------|
D|-----------------------------------------|-----------------------------------------|
A|-0----0----0----0----0----0----0----0----|-0----0----0----0----0----0----0----0----|
E|-----------------------------------------|-----------------------------------------|

G|-----------------------------------------|-----------------------------------------|
D|-----------------------------------------|-----------------------------------------|
A|-0----0----0----0----0----0----0----0----|-0----0----0----0----0----0----0----0----|
E|-----------------------------------------|-----------------------------------------|

G|-----------------------------------------|-----------------------------------------|
D|-----------------------------------------|-----------------------------------------|
A|-0----0----0----0----0----0----0----0----|-0----0----0----0----0----0----0----0----|
E|-----------------------------------------|-----------------------------------------|

G|-----------------------------------------|----------------2------2----|-2-------|
D|-----------------------------------------|-4----2----4----------------|---------|
A|-0----0----0----0----0----0----0----0----|----------------------------|---------|
E|-----------------------------------------|----------------------------|---------|

G|-2-------2---------|------------------------|
D|---------------%---|-%----------%------%----|
A|---------------%---|-%-----0----%------%----|
E|-------------------|------------------------|
ACDC - Rock and Roll Damnation
ACDC - Rock and Roll Damnation.gp3