ACDC - safe in new york city

AC-DC



Title: SAfe in New York City
Album: 
Artist: ac -dc
Author: 

Track 1: guitar
E|---------------|---------|-------------------------|---------|---------|-----------------------------------------|
B|---------------|---------|-------------------------|---------|---------|-----------------------------------------|
G|-0-----2-------|-2-------|-2-----0-----------------|---------|---------|-----------------------------------------|
D|-0-----2-------|-2-------|-2-----0-----2------2----|-2-------|-2-------|-----------------------------------------|
A|-------0-------|-0-------|-0-----------2------2----|-2-------|-2-------|-5---------7---------8---------7---------|
E|-3-------------|---------|-------3-----0------0----|-0-------|-0-------|-3----0----5----0----6----0----5----0----|

E|---------------------------------|-----------------------------------------|---------------------------------|
B|---------------------------------|-----------------------------------------|---------------------------------|
G|---------------------------------|-----------------------------------------|---------------------------------|
D|---------------------------------|-----------------------------------------|---------------------------------|
A|-5---------7---------5----2------|-5---------7---------8---------7---------|-5---------7---------5----2------|
E|-3----0----5----0----3----0------|-3----0----5----0----6----0----5----0----|-3----0----5----0----3----0------|

E|-------------------|-----------------------------------------|----------------------------|
B|-------------------|-----------------------------------------|----------------------------|
G|---------%---------|-----------------------------------------|----------------------------|
D|-2-------%---------|-----------------------------------------|----------------------------|
A|-2-----------------|-----------------------------------------|---------------------2------|
E|-0------------0----|-6----5----3----0----6----5----3----0----|-6----5----3----0----0------|

E|---------|-----------------------------------------|---------------------------------|
B|---------|-----------------------------------------|---------------------------------|
G|---------|-----------------------------------------|---------------------------------|
D|-2-------|-----------------------------------------|---------------------------------|
A|-2-------|-5---------7---------8---------7---------|-5---------7---------5----2------|
E|-0-------|-3----0----5----0----6----0----5----0----|-3----0----5----0----3----0------|

E|-----------------------------------------|---------------------------------|-------------------|
B|-----------------------------------------|---------------------------------|-------------------|
G|-----------------------------------------|---------------------------------|---------%---------|
D|-----------------------------------------|---------------------------------|-2-------%---------|
A|-5---------7---------8---------7---------|-5---------7---------5----2------|-2-----------------|
E|-3----0----5----0----6----0----5----0----|-3----0----5----0----3----0------|-0------------0----|

E|-----------------------------------------|----------------------------|---------|
B|-----------------------------------------|----------------------------|---------|
G|-----------------------------------------|----------------------------|---------|
D|-----------------------------------------|----------------------------|-2-------|
A|-----------------------------------------|---------------------2------|-2-------|
E|-6----5----3----0----6----5----3----0----|-6----5----3----0----0------|-0-------|
ACDC - safe in new york city
ACDC - safe in new york city.gp3