ACDC - Safe In New York City (2)

AC-DC



Title: Safe In New York City
Album: Stiff Upper Lip
Artist: AC/DC
Author: 

Track 1: Lead Guitar
E|-------------------|---------|---------|---------------|-------------------|---------|
B|-3----2----2-------|-2-------|-2-------|-3------2------|-3-----------------|---------|
G|-0----2----2-------|-2-------|-2-------|-0------2------|-0-----------------|---------|
D|-0----2----2-------|-2-------|-2-------|-0------2------|-0----2----2-------|-2-------|
A|-X----0----0-------|-0-------|-0-------|-X------0------|-X----2----2-------|-2-------|
E|-3-----------------|---------|---------|-3-------------|-3----0----0-------|-0-------|

E|---------|---------|---------|---------|--------|-------------------------------------|
B|---------|---------|---------|---------|--------|-------------------------------------|
G|---------|---------|---------|---------|-%------|-%----%------------------------------|
D|-2-------|-2-------|-2-------|-2-------|-%------|-%----%------------------------------|
A|-2-------|-2-------|-2-------|-2-------|--------|-------------------------------------|
E|-0-------|-0-------|-0-------|-0-------|--------|------------0----3----0----5----0----|

E|-----------------------------------------|-------------------------------------|-------------------------------------|
B|-----------------------------------------|-------------------------------------|-------------------------------------|
G|-----------------------------------------|-------------------------------------|-------------------------------------|
D|-----------------------------------------|-------------------------------------|-------------------------------------|
A|-----------------------------------------|-------------------------------------|----------------------0---------0----|
E|-6----0----5----0----3----0----5----0----|-3----0-----0----3----0----5----0----|-3----0-----0----3---------5---------|

E|-----------------------------------------|-------------------------------------|-------------------------------------|
B|-----------------------------------------|-------------------------------------|-------------------------------------|
G|-----------------------------------------|-------------------------------------|---------------------0---------------|
D|-----------------------------------------|-------------------------------------|---------------------0-----2----2----|
A|------0---------0---------0---------0----|----------------------0---------0----|-1----0---------0----X-----0----2----|
E|-6---------5---------3---------5---------|-3----0-----0----3---------5---------|-----------5---------3----------0----|

E|---------|------------------------|-----------------------------------------|---------------------------------|
B|---------|------------------------|-----------------------------------------|---------------------------------|
G|---------|------------------------|-----------------------------------------|---------------------------------|
D|-2-------|-2------2-----2---------|-----------------------------------------|----------------------------2----|
A|-2-------|-2------2-----2---------|-1----0--------------1----0--------------|-1----0---------2----2------2----|
E|-0-------|-0------0-----0----0----|-----------3----0--------------3----0----|-----------3----0----0------0----|

E|---------|-------------------|-----------------------------------------|---------------------------------|
B|---------|-------------------|-----------------------------------------|---------------------------------|
G|---------|---------%---------|-----------------------------------------|---------------------------------|
D|-2-------|-2-------%---------|-----------------------------------------|----------------------------2----|
A|-2-------|-2-----------------|-1----0--------------1----0--------------|-1----0---------------------2----|
E|-0-------|-0------------0----|-----------3----0--------------3----0----|-----------3----0----0------0----|

E|---------|------------------------|-----------------------------------------|---------------------------------|
B|---------|------------------------|-----------------------------------------|---------------------------------|
G|---------|------------------------|-----------------------------------------|---------------------------------|
D|-2-------|-2------2-----2---------|-----------------------------------------|----------------------------2----|
A|-2-------|-2------2-----2---------|-1----0--------------1----0--------------|-1----0---------------------2----|
E|-0-------|-0------0-----0----0----|-----------3----0--------------3----0----|-----------3----0----0------0----|

E|---------|---------|---------|---------|---------|---------|-------------------------------------|
B|---------|---------|---------|---------|---------|---------|-------------------------------------|
G|---------|---------|---------|---------|---------|---------|-------%-----------------------------|
D|-2-------|-2-------|-2-------|-2-------|-2-------|-2-------|-2-----%-----------------------------|
A|-2-------|-2-------|-2-------|-2-------|-2-------|-2-------|-2-----------------------------------|
E|-0-------|-0-------|-0-------|-0-------|-0-------|-0-------|-0----------0----3----0----5----0----|

E|-----------------------------------------|-------------------------------------|-----------------------------------------|
B|-----------------------------------------|-------------------------------------|-----------------------------------------|
G|-----------------------------------------|-------------------------------------|-----------------------------------------|
D|-----------------------------------------|-------------------------------------|-----------------------------------------|
A|-----------------------------------------|-------------------------------------|-----------------------------------------|
E|-6----0----5----0----3----0----5----0----|-3----0-----0----3----0----5----0----|-6----0----5----0----3----0----5----0----|

E|-------------------------------------|-------------------------------------|---------|
B|-------------------------------------|-------------------------------------|---------|
G|-------------------------------------|-------------------------------------|---------|
D|-------------------------------------|---------------------------2----2----|-2-------|
A|----------------------0---------0----|------0---------0----------0----2----|-2-------|
E|-3----0-----0----3---------5---------|-6---------5---------3----------0----|-0-------|

E|------------------------|-----------------------------------------|---------------------------------|
B|------------------------|-----------------------------------------|---------------------------------|
G|------------------------|-----------------------------------------|---------------------------------|
D|-2------2-----2---------|-----------------------------------------|----------------------------2----|
A|-2------2-----2---------|-1----0--------------1----0--------------|-1----0---------2----2------2----|
E|-0------0-----0----0----|-----------3----0--------------3----0----|-----------3----0----0------0----|

E|---------|-------------------|-----------------------------------------|---------------------------------|
B|---------|-------------------|-----------------------------------------|---------------------------------|
G|---------|---------%---------|-----------------------------------------|---------------------------------|
D|-2-------|-2-------%---------|-----------------------------------------|----------------------------2----|
A|-2-------|-2-----------------|-1----0--------------1----0--------------|-1----0---------------------2----|
E|-0-------|-0------------0----|-----------3----0--------------3----0----|-----------3----0----0------0----|

E|---------|------------------------|-----------------------------------------|---------------------------------|
B|---------|------------------------|-----------------------------------------|---------------------------------|
G|---------|------------------------|-----------------------------------------|---------------------------------|
D|-2-------|-2------2-----2---------|-----------------------------------------|----------------------------2----|
A|-2-------|-2------2-----2---------|-1----0--------------1----0--------------|-1----0---------------------2----|
E|-0-------|-0------0-----0----0----|-----------3----0--------------3----0----|-----------3----0----0------0----|

E|---------|---------|---------|---------|---------|---------|-------------------------------------|
B|---------|---------|---------|---------|---------|---------|-------------------------------------|
G|---------|---------|---------|---------|---------|---------|-------%-----------------------------|
D|-2-------|-2-------|-2-------|-2-------|-2-------|-2-------|-2-----%-----------------------------|
A|-2-------|-2-------|-2-------|-2-------|-2-------|-2-------|-2-----------------------------------|
E|-0-------|-0-------|-0-------|-0-------|-0-------|-0-------|-0----------0----3----0----5----0----|

E|-----------------------------------------|-------------------------------------|-----------------------------------------|
B|-----------------------------------------|-------------------------------------|-----------------------------------------|
G|-----------------------------------------|-------------------------------------|-----------------------------------------|
D|-----------------------------------------|-------------------------------------|-----------------------------------------|
A|-----------------------------------------|-------------------------------------|-----------------------------------------|
E|-6----0----5----0----3----0----5----0----|-3----0-----0----3----0----5----0----|-6----0----5----0----3----0----5----0----|

E|-------------------------------------|-----------------------------------------|-------------------------------------|
B|-------------------------------------|-----------------------------------------|-------------------------------------|
G|-------------------------------------|-----------------------------------------|-------------------------------------|
D|-------------------------------------|-----------------------------------------|-------------------------------------|
A|-------------------------------------|-----------------------------------------|-------------------------------------|
E|-3----0-----0----3----0----5----0----|-6----0----5----0----3----0----5----0----|-3----0-----0----3----0----5----0----|

E|-----------------------------------------|-------------------------------------|-----------------------------------------|
B|-----------------------------------------|-------------------------------------|-----------------------------------------|
G|-----------------------------------------|-------------------------------------|-----------------------------------------|
D|-----------------------------------------|-------------------------------------|-----------------------------------------|
A|-----------------------------------------|----------------------0---------0----|------0---------0---------0---------0----|
E|-6----0----5----0----3----0----5----0----|-3----0-----0----3---------5---------|-6---------5---------3---------5---------|

E|-----------------------------------------|-----------------------------|------------5----5------|
B|-----------------------------------------|-----------------------------|------------5----5------|
G|-----------------------------------------|-------------5----5----7-----|-5----------------------|
D|-----------------------------------------|-5----7----------------------|-------7----------------|
A|------0---------0---------0--------------|-----------------------------|------------------------|
E|-6---------5---------3---------5----0----|-----------------------------|------------------------|

E|-5----5----5-------------------5---------|-------------------------------------|-----------------------------------------|
B|-5----5----5----7----5---------5----7----|-5---------5----5----5----------7----|-7----7----7----7----7----7----7----7----|
G|----------------7----5--------------7----|-5---------5----5----5-----%----7----|-7----7----7----7----7----7----7----7----|
D|--------------------------7--------------|------7--------------------%---------|-----------------------------------------|
A|-----------------------------------------|-------------------------------------|-----------------------------------------|
E|-----------------------------------------|-------------------------------------|-----------------------------------------|

E|-------------------------------------|-----------5---------5--------------5----|---------------------------------|
B|-7----7----7----7----7----------8----|-8----8---------8---------8----8---------|-8----5--------------------------|
G|-7----7----7----7----7-----%---------|-----------------------------------------|-----------7----5----------------|
D|---------------------------%---------|-----------------------------------------|---------------------7-----------|
A|-------------------------------------|-----------------------------------------|---------------------------------|
E|-------------------------------------|-----------------------------------------|----------------------------0----|

E|-------------------------|--------------------|-12------------------------------|
B|-------------------------|-------------15-----|------12-------------------------|
G|-8-----7-----8-----7-----|--------------------|-----------13--------------------|
D|-8-----7-----8-----7-----|--------------------|----------------14---14----------|
A|-------------------------|-7------------------|---------------------------------|
E|-------------------------|-------0------------|---------------------------12----|

E|-------------------------------------|------------0---------------0----|-----------0---------0--------------0----|
B|------------3----3--------------3----|---------------------------------|-3----3---------3---------3----3---------|
G|-------2--------------2----2---------|-2----2----------2----2----------|-----------------------------------------|
D|-------------------------------------|---------------------------------|-----------------------------------------|
A|-------------------------------------|---------------------------------|-----------------------------------------|
E|-0-----------------------------------|---------------------------------|-----------------------------------------|

E|---------------------------------|-12--------------------------------------|-----------------------------------------|
B|-5----3--------------------------|-12---14---12--------12--------14--------|-15------------------15------------------|
G|-----------4----2----0-----------|------14---12--------12--------14---12---|-14---14---12--------14---14---12--------|
D|---------------------------------|----------------14--------14-------------|----------------14------------------14---|
A|---------------------------------|-----------------------------------------|-----------------------------------------|
E|----------------------------0----|-----------------------------------------|-----------------------------------------|

E|---------|---------|-----------------------------------------|---------------------------------|
B|---------|---------|-----------------------------------------|---------------------------------|
G|---------|---------|-----------------------------------------|---------------------------------|
D|-14------|-14------|-----------------------------------------|----------------------------2----|
A|---------|---------|-1----0--------------1----0--------------|-1----0---------2----2------2----|
E|---------|---------|-----------3----0--------------3----0----|-----------3----0----0------0----|

E|---------|-------------------|-----------------------------------------|---------------------------------|
B|---------|-------------------|-----------------------------------------|---------------------------------|
G|---------|---------%---------|-----------------------------------------|---------------------------------|
D|-2-------|-2-------%---------|-----------------------------------------|----------------------------2----|
A|-2-------|-2-----------------|-1----0--------------1----0--------------|-1----0---------------------2----|
E|-0-------|-0------------0----|-----------3----0--------------3----0----|-----------3----0----0------0----|

E|---------|------------------------|-----------------------------------------|---------------------------------|
B|---------|------------------------|-----------------------------------------|---------------------------------|
G|---------|------------------------|-----------------------------------------|---------------------------------|
D|-2-------|-2------2-----2---------|-----------------------------------------|----------------------------2----|
A|-2-------|-2------2-----2---------|-1----0--------------1----0--------------|-1----0---------------------2----|
E|-0-------|-0------0-----0----0----|-----------3----0--------------3----0----|-----------3----0----0------0----|

E|---------|---------|---------|---------|---------|---------|-------------------------------------|
B|---------|---------|---------|---------|---------|---------|-------------------------------------|
G|---------|---------|---------|---------|---------|---------|-------%-----------------------------|
D|-2-------|-2-------|-2-------|-2-------|-2-------|-2-------|-2-----%-----------------------------|
A|-2-------|-2-------|-2-------|-2-------|-2-------|-2-------|-2-----------------------------------|
E|-0-------|-0-------|-0-------|-0-------|-0-------|-0-------|-0----------0----3----0----5----0----|

E|-----------------------------------------|-------------------------------------|-----------------------------------------|
B|-----------------------------------------|-------------------------------------|-----------------------------------------|
G|-----------------------------------------|-------------------------------------|-----------------------------------------|
D|-----------------------------------------|-------------------------------------|-----------------------------------------|
A|-----------------------------------------|-------------------------------------|-----------------------------------------|
E|-6----0----5----0----3----0----5----0----|-3----0-----0----3----0----5----0----|-6----0----5----0----3----0----5----0----|

E|--------------------|-----------------------5-----|-2---------5------5-----|-------12---12---12---12---12---12---|
B|--------------------|-------------1---------------|------------------------|-------13---13---13---13---13---13---|
G|--------------------|-------%----------2----------|------2-----------------|-%-----------------------------------|
D|-5----7------7------|-5-----%---------------------|------------------------|-%-----------------------------------|
A|--------------------|-----------------------------|------------------------|-------------------------------------|
E|--------------------|-----------------------------|------------------------|-------------------------------------|

E|-12---14--12--12---14--12--12---14--12--12---14--12--|-12---------0----5-------------------|
B|-13-----------13-----------13-----------13-----------|-13----------------------------------|
G|-----------------------------------------------------|-------%--------------7----6---------|
D|-----------------------------------------------------|-------%------------------------7----|
A|-----------------------------------------------------|-------------------------------------|
E|-----------------------------------------------------|-------------------------------------|

E|---------------------------------|-------------------------------------|-----------------------------|
B|------7------7----7----7----7----|-7----7----7----7----7----7----7-----|------7----7-----7-----7-----|
G|-5----7------7----7----7----7----|-7----7----7----7----7----7----7-----|-%----7----7-----7-----7-----|
D|---------------------------------|-------------------------------------|-%---------------------------|
A|---------------------------------|-------------------------------------|-----------------------------|
E|---------------------------------|-------------------------------------|-----------------------------|

E|---------------|---------|---------|--------------------|---------|---------|--------------------|
B|-7-------------|---------|---------|--------------------|---------|---------|--------12----14----|
G|-7-----7-------|-7-------|-7-------|-7-----%-----%------|-%-------|-%-------|-%------12----14----|
D|---------------|---------|---------|-------%-----%------|-%-------|-%-------|-%------------------|
A|---------------|---------|---------|--------------------|---------|---------|--------------------|
E|---------------|---------|---------|--------------------|---------|---------|--------------------|

E|-------------------------|-------------------------|-------------------------|-------------------------|
B|-12----------12----14----|-15----14----12----14----|-12----------12----14----|-15----14----12----14----|
G|-12----------12----14----|-15----14----12----14----|-12---12-----12----14----|-15----14----12----14----|
D|------14-----------------|-------------------------|------14-----------------|-------------------------|
A|-------------------------|-------------------------|-------------------------|-------------------------|
E|-------------------------|-------------------------|-------------------------|-------------------------|

E|-----------------------------|---------------------------------|-----------------------------|
B|-12----------------15--------|------15---------15--------------|-------------------15--------|
G|-12---12-----14---------14---|-14--------14---------14---14----|-12----------14---------14---|
D|------14---------------------|---------------------------------|------14---------------------|
A|-----------------------------|---------------------------------|-----------------------------|
E|-----------------------------|---------------------------------|-----------------------------|

E|-------------------------------------|------------------------|------------------------|
B|------15-----------------------------|------------------------|------------------------|
G|-14--------14---14---12----14--------|--------12----14--------|--------12----14--------|
D|--------------------------------14---|-14-----12---------14---|-14-----12---------14---|
A|-------------------------------------|------------------------|------------------------|
E|-------------------------------------|------------------------|------------------------|

E|------------------------|---------|---------|-------------------------|---------------|
B|------------------------|---------|---------|-------------------------|---------------|
G|--------12----14--------|---------|---------|-------------------------|-0-------2-----|
D|-14-----12---------14---|-14------|-14------|-8-----7-----5-----2-----|-0-------2-----|
A|------------------------|---------|---------|-------------------------|-X-------0-----|
E|------------------------|---------|---------|-------------------------|-3-------------|

E|--------7------|-10----7-------|-7----7----7----7----7----7--------------|------7------7------|
B|--------10-----|-------10------|-10---10---10---10---10---10---10---10---|-15---10-----10-----|
G|---------------|---------------|-----------------------------------------|--------------------|
D|-2-------------|---------------|-----------------------------------------|--------------------|
A|-2-------------|---------------|-----------------------------------------|--------------------|
E|-0-------------|---------------|-----------------------------------------|--------------------|

E|---------------|---------|---------|-0------------------|
B|---------------|---------|---------|-0------------------|
G|-%------2------|-2-------|-2-------|-1-----%-----%------|
D|-%-------------|---------|---------|-------%-----%------|
A|---------------|---------|---------|--------------------|
E|---------------|---------|---------|--------------------|
ACDC - Safe In New York City (2)
ACDC - Safe In New York City (2).gp3