ACDC - Sattelite Blues

AC-DC



Title: Sattelite Blues
Album: 
Artist: AC/DC
Author: 

Track 1: Rhythm Guitar right
E|---------|---------|--------------------------------------------------|------------------------|
B|---------|---------|--------------------------------------------------|-------------------3----|
G|-%-------|-%-------|-0---2---2----0---%----%---0----2----2---%----%---|-%------%-----%----2----|
D|-%-------|-%-------|-0---2---2----0---%----%---0----2----2---%----%---|-%------%-----%----0----|
A|---------|---------|-----0---0----0------------0----0----0------------|------------------------|
E|---------|---------|--------------------------------------------------|------------------------|

E|------3----3---------3------------------|---------|--------------------------------------------------|
B|-3----3----3----3----3----3-------------|---------|--------------------------------------------------|
G|-2----0----0----2----0----2---%-----%---|-%-------|-0---2---2----0---%----%---0----2----2---%----%---|
D|-0----0----0----0----0----0---%-----%---|-%-------|-0---2---2----0---%----%---0----2----2---%----%---|
A|----------------------------------------|---------|-----0---0----0------------0----0----0------------|
E|----------------------------------------|---------|--------------------------------------------------|

E|------------------------|------3----3---------3------------------|---------|--------------------------------------------------|
B|-------------------3----|-3----3----3----3----3----3-------------|---------|--------------------------------------------------|
G|-%------%-----%----2----|-2----0----0----2----0----2---%-----%---|-%-------|-0---2---2----0---%----%---0----2----2---%----%---|
D|-%------%-----%----0----|-0----0----0----0----0----0---%-----%---|-%-------|-0---2---2----0---%----%---0----2----2---%----%---|
A|------------------------|----------------------------------------|---------|-----0---0----0------------0----0----0------------|
E|------------------------|----------------------------------------|---------|--------------------------------------------------|

E|------------------------|------3----3---------3------------------|---------|--------------------------------------------------|
B|-------------------3----|-3----3----3----3----3----3-------------|---------|--------------------------------------------------|
G|-%------%-----%----2----|-2----0----0----2----0----2---%-----%---|-%-------|-0---2---2----0---%----%---0----2----2---%----%---|
D|-%------%-----%----0----|-0----0----0----0----0----0---%-----%---|-%-------|-0---2---2----0---%----%---0----2----2---%----%---|
A|------------------------|----------------------------------------|---------|-----0---0----0------------0----0----0------------|
E|------------------------|----------------------------------------|---------|--------------------------------------------------|

E|------------------------|------3----3---------3----------------------|---------|------------------------------------|
B|-------------------3----|-3----3----3----3----3----3------------3----|-3-------|------------------------------------|
G|-%------%-----%----2----|-2----0----0----2----0----2---%----%---2----|-2-------|-0---2---2----0-----0----2----2-----|
D|-%------%-----%----0----|-0----0----0----0----0----0---%----%---0----|-0-------|-0---2---2----0-----0----2----2-----|
A|------------------------|--------------------------------------------|---------|-----0---0----0-----0----0----0-----|
E|------------------------|--------------------------------------------|---------|------------------------------------|

E|---------------------------------|-------------------------------------|----------------------------|
B|----------------------------3----|-3----3----3----3----3----3-----3----|-3----3----3----3----3------|
G|-2-----2----0-----2----2----2----|-2----0----0----2----0----2-----2----|-2----0----0----2----0------|
D|-2-----2----0-----2----2----0----|-0----0----0----0----0----0-----0----|-0----0----0----0----0------|
A|-0-----0----0-----0----0---------|-------------------------------------|----------------------------|
E|---------------------------------|-------------------------------------|----------------------------|

E|------------------------------------|---------------------------------|-------------------------------------|
B|------------------------------------|----------------------------3----|-3----3----3----3----3----3-----3----|
G|-0---2---2----0-----0----2----2-----|-2-----2----0-----2----2----2----|-2----0----0----2----0----2-----0----|
D|-0---2---2----0-----0----2----2-----|-2-----2----0-----2----2----0----|-0----0----0----0----0----0-----0----|
A|-----0---0----0-----0----0----0-----|-0-----0----0-----0----0---------|-------------------------------------|
E|------------------------------------|---------------------------------|--------------------------------3----|

E|---------------------------------|------------------------------------|---------------------------------|
B|-3----1----1---------1-----------|------------------------------------|----------------------------3----|
G|-0----0----0----0----0----0------|-0---2---2----0-----0----2----2-----|-2-----2----0-----2----2----2----|
D|-0----2----2----0----2----0------|-0---2---2----0-----0----2----2-----|-2-----2----0-----2----2----0----|
A|------3----3---------3-----------|-----0---0----0-----0----0----0-----|-0-----0----0-----0----0---------|
E|-3--------------3---------3------|------------------------------------|---------------------------------|

E|-------------------------------------|----------------------------|-------------------------------------------|
B|-3----3----3----3----3----3-----3----|-3----3----3----3----3------|-------------------------------------------|
G|-2----0----0----2----0----2-----2----|-2----0----0----2----0------|-0---2---2----0---%----%---0----2----2-----|
D|-0----0----0----0----0----0-----0----|-0----0----0----0----0------|-0---2---2----0---%----%---0----2----2-----|
A|-------------------------------------|----------------------------|-----0---0----0------------0----0----0-----|
E|-------------------------------------|----------------------------|-------------------------------------------|

E|---------------------------------|-------------------------------------|--------------------------------------------|
B|----------------------------3----|-3----3----3----3----3----3-----3----|-3----1----1---------1-----------------3----|
G|-2-----2----0-----2----2----2----|-2----0----0----2----0----2-----0----|-0----0----0----0----0----0---%----%---0----|
D|-2-----2----0-----2----2----0----|-0----0----0----0----0----0-----0----|-0----2----2----0----2----0---%----%---0----|
A|-0-----0----0-----0----0---------|-------------------------------------|------3----3---------3----------------------|
E|---------------------------------|--------------------------------3----|-3--------------3---------3------------3----|

E|--------------------------------------------|--------------------------------------------|
B|-3----1----1---------1-----------------3----|-3----1----1---------1-----------------3----|
G|-0----0----0----0----0----0---%----%---0----|-0----0----0----0----0----0---%----%---2----|
D|-0----2----2----0----2----0---%----%---0----|-0----2----2----0----2----0---%----%---0----|
A|------3----3---------3----------------------|------3----3---------3----------------------|
E|-3--------------3---------3------------3----|-3--------------3---------3-----------------|

E|---------|---------|------------------------------------|---------------------------------|
B|-3-------|-3-------|------------------------------------|----------------------------3----|
G|-2-------|-2-------|-0---2---2----0-----0----2----2-----|-2-----2----0-----2----2----2----|
D|-0-------|-0-------|-0---2---2----0-----0----2----2-----|-2-----2----0-----2----2----0----|
A|---------|---------|-----0---0----0-----0----0----0-----|-0-----0----0-----0----0---------|
E|---------|---------|------------------------------------|---------------------------------|

E|-------------------------------------|----------------------------|------------------------------------|
B|-3----3----3----3----3----3-----3----|-3----3----3----3----3------|------------------------------------|
G|-2----0----0----2----0----2-----2----|-2----0----0----2----0------|-0---2---2----0-----0----2----2-----|
D|-0----0----0----0----0----0-----0----|-0----0----0----0----0------|-0---2---2----0-----0----2----2-----|
A|-------------------------------------|----------------------------|-----0---0----0-----0----0----0-----|
E|-------------------------------------|----------------------------|------------------------------------|

E|---------------------------------|------3----3---------3---------------|-------------------------------------|
B|----------------------------3----|-3----3----3----3----3----3----------|------1----1---------1----0----------|
G|-2-----2----0-----2----2----2----|-2----0----0----2----0----2-----0----|-0----0----0----0----0----0-----0----|
D|-2-----2----0-----2----2----0----|-0----0----0----0----0----0-----0----|-0----2----2----0----2----0-----0----|
A|-0-----0----0-----0----0---------|-------------------------------------|------3----3---------3---------------|
E|---------------------------------|--------------------------------3----|-3--------------3---------3-----3----|

E|------------------------------------|---------------------------------|-------------------------------------|
B|------------------------------------|----------------------------3----|-3----3----3----3----3----3-----3----|
G|-0---2---2----0-----0----2----2-----|-2-----2----0-----2----2----2----|-2----0----0----2----0----2-----2----|
D|-0---2---2----0-----0----2----2-----|-2-----2----0-----2----2----0----|-0----0----0----0----0----0-----0----|
A|-----0---0----0-----0----0----0-----|-0-----0----0-----0----0---------|-------------------------------------|
E|------------------------------------|---------------------------------|-------------------------------------|

E|----------------------------|------------------------------------|---------------------------------|
B|-3----3----3----3----3------|------------------------------------|----------------------------3----|
G|-2----0----0----2----0------|-0---2---2----0-----0----2----2-----|-2-----2----0-----2----2----2----|
D|-0----0----0----0----0------|-0---2---2----0-----0----2----2-----|-2-----2----0-----2----2----0----|
A|----------------------------|-----0---0----0-----0----0----0-----|-0-----0----0-----0----0---------|
E|----------------------------|------------------------------------|---------------------------------|

E|------3----3---------3---------------|------3----3---------3---------------|------3----3---------3---------------|
B|-3----3----3----3----3----3-----3----|-3----3----3----3----3----3-----3----|-3----3----3----3----3----3-----3----|
G|-2----0----0----2----0----2-----2----|-2----0----0----2----0----2-----2----|-2----0----0----2----0----2-----2----|
D|-0----0----0----0----0----0-----0----|-0----0----0----0----0----0-----0----|-0----0----0----0----0----0-----0----|
A|-------------------------------------|-------------------------------------|-------------------------------------|
E|-------------------------------------|-------------------------------------|-------------------------------------|

E|---------|------------------------------------|---------------------------------|
B|-3-------|------------------------------------|----------------------------3----|
G|-2-------|-0---2---2----0-----0----2----2-----|-2-----2----0-----2----2----2----|
D|-0-------|-0---2---2----0-----0----2----2-----|-2-----2----0-----2----2----0----|
A|---------|-----0---0----0-----0----0----0-----|-0-----0----0-----0----0---------|
E|---------|------------------------------------|---------------------------------|

E|-------------------------------------|-------------------------------------|------------------------------------|
B|-3----3----3----3----3----3-----3----|-3----1----1---------1---------------|------------------------------------|
G|-2----0----0----2----0----2-----0----|-0----0----0----0----0----0-----0----|-0---2---2----0-----0----2----2-----|
D|-0----0----0----0----0----0-----0----|-0----2----2----0----2----0-----0----|-0---2---2----0-----0----2----2-----|
A|-------------------------------------|------3----3---------3---------------|-----0---0----0-----0----0----0-----|
E|--------------------------------3----|-3--------------3---------3-----3----|------------------------------------|

E|---------------------------------|-------------------------------------|-------------------------------------|
B|----------------------------3----|-3----3----3----3----3----3-----3----|-3----1----1---------1---------------|
G|-2-----2----0-----2----2----2----|-2----0----0----2----0----2-----0----|-0----0----0----0----0----0-----0----|
D|-2-----2----0-----2----2----0----|-0----0----0----0----0----0-----0----|-0----2----2----0----2----0-----0----|
A|-0-----0----0-----0----0---------|-------------------------------------|------3----3---------3---------------|
E|---------------------------------|--------------------------------3----|-3--------------3---------3-----3----|

E|------------------------------------|---------------------------------|-------------------------------------|
B|------------------------------------|----------------------------3----|-3----3----3----3----3----3-----3----|
G|-0---2---2----0-----0----2----2-----|-2-----2----0-----2----2----2----|-2----0----0----2----0----2-----0----|
D|-0---2---2----0-----0----2----2-----|-2-----2----0-----2----2----0----|-0----0----0----0----0----0-----0----|
A|-----0---0----0-----0----0----0-----|-0-----0----0-----0----0---------|-------------------------------------|
E|------------------------------------|---------------------------------|--------------------------------3----|

E|-------------------------------------|------------------------------------|---------------------------------|
B|-3----1----1---------1---------------|------------------------------------|----------------------------3----|
G|-0----0----0----0----0----0-----0----|-0---2---2----0-----0----2----2-----|-2-----2----0-----2----2----2----|
D|-0----2----2----0----2----0-----0----|-0---2---2----0-----0----2----2-----|-2-----2----0-----2----2----0----|
A|------3----3---------3---------------|-----0---0----0-----0----0----0-----|-0-----0----0-----0----0---------|
E|-3--------------3---------3-----3----|------------------------------------|---------------------------------|

E|-------------------------------------|-------------------------------------|-------------------------------------|
B|-3----3----3----3----3----3-----3----|-3----1----1---------1---------------|------1----1---------1----------3----|
G|-2----0----0----2----0----2-----0----|-0----0----0----0----0----0-----0----|-0----0----0----0----0----0-----0----|
D|-0----0----0----0----0----0-----0----|-0----2----2----0----2----0-----0----|-0----2----2----0----2----0-----0----|
A|-------------------------------------|------3----3---------3---------------|------3----3---------3---------------|
E|--------------------------------3----|-3--------------3---------3-----3----|-3--------------3---------3-----3----|

E|-------------------------------------|---------|-------3-----3-----------|-3-------------|
B|-3----1----1---------1----------3----|-3-------|-3-----3-----3-----3-----|-3-----3-------|
G|-0----0----0----0----0----0-----2----|-2-------|-2-----0-----0-----2-----|-0-----2-------|
D|-0----2----2----0----2----0-----0----|-0-------|-0-----0-----0-----0-----|-0-----0-------|
A|------3----3---------3---------------|---------|-------------------------|---------------|
E|-3--------------3---------3----------|---------|-------------------------|---------------|

E|----------------------|
B|----------------------|
G|-2-------2---%----%---|
D|-2-------2---%----%---|
A|-0-------0------------|
E|----------------------|
ACDC - Sattelite Blues
ACDC - Sattelite Blues.gp3